Song name
# A B C D E F G H I J K L M N O P Q R S T U V W X Y Z

Uk Subs - Squat 96 tab

Intro:
e|--------------------------------------------------------------|
B|-----------------4-4-----------------4-4-----------------4-4--|
G|-4-4-4-4-4-4-4-4-4-4-4-4-4-4-4-4-4-4-4-4-4-4-4-4-4-4-4-4-4-4--|
D|-4-4-4-4-4-4-4-4-4-4-4-4-4-4-4-4-4-4-4-4-4-4-4-4-4-4-4-4-4-4--|
A|-2-2-2-2-2-2-2-2-----2-2-2-2-2-2-2-2-----2-2-2-2-2-2-2-2------|
E|--------------------------------------------------------------|
   <.....P.M.....>     <.....P.M.....>     <.....P.M.....>

e|------------------|
B|-----------4-4-4--|
G|-4-4-4-4-4-4-4-4--|
D|-4-4-4-4-4-4-4-4--|
A|-2-2-2-2-2--------|
E|------------------|
   <..P.M..>

Verse:
e|------------------------------------------------------------------|
B|------------------------------------------------------------------|
G|-4-4-4-4----------7--7-----------4-4-4-4----------7--7------------|
D|-4-4-4-4-5-5-5-5--7--7--7-7-7-7--4-4-4-4-5-5-5-5--7--7--7-7-7-7---|
A|-2-2-2-2-5-5-5-5--5--5--7-7-7-7--2-2-2-2-5-5-5-5--5--5--7-7-7-7---|
E|---------3-3-3-3--------5-5-5-5----------3-3-3-3--------5-5-5-5---|
   <.....P.M.....>        <...........P.M........>        <.P.M.>

e|------------------------------------------------------------------|
B|------------------------------------------------------------------|
G|-4-4-4-4----------7--7-----------4-4-4-4----------7--7------------|
D|-4-4-4-4-5-5-5-5--7--7--7-7-7-7--4-4-4-4-5-5-5-5--7--7--7-7-7-7---|
A|-2-2-2-2-5-5-5-5--5--5--7-7-7-7--2-2-2-2-5-5-5-5--5--5--7-7-7-7---|
E|---------3-3-3-3--------5-5-5-5----------3-3-3-3--------5-5-5-5---|
   <.....P.M.....>        <...........P.M........>        <.P.M.>

Chorus:
e|----------------------------------------------------------------|
B|----------------------------------------------------------------|
G|-4-4-4----------7-7-7-----------4-4-4----------7-7-7------------|
D|-4-4-4-5--5-5-5-7-7-7-7--7-7-7--4-4-4-5--5-5-5-7-7-7-7--7-7-7---|
A|-2-2-2-5--5-5-5-5-5-5-7--7-7-7--2-2-2-5--5-5-5-5-5-5-7--7-7-7---|
E|-------3--3-3-3-------5--5-5-5--------3--3-3-3-------5--5-5-5---|

e|----------------------------------------------------------------|
B|----------------------------------------------------------------|
G|-4-4-4----------7-7-7-----------4-4-4----------7-7-7------------|
D|-4-4-4-5--5-5-5-7-7-7-7--7-7-7--4-4-4-5--5-5-5-7-7-7-7--7-7-7---|
A|-2-2-2-5--5-5-5-5-5-5-7--7-7-7--2-2-2-5--5-5-5-5-5-5-7--7-7-7---|
E|-------3--3-3-3-------5--5-5-5--------3--3-3-3-------5--5-5-5---|

verse and chorus 2x

Bridge:
e|-----------------------------------------------------------------------|
B|-----------------------------------------------------------------------|
G|-5-5-5-5-5-5-5-5-5-5-5--7--5-5-5-5-5-5-5-5-5-5-5-7-6-5--4-4-4-2-4--2-4-|
D|-5-5-5-5-5-5-5-5-5-5-5--7--5-5-5-5-5-5-5-5-5-5-5-7-6-5-------------2-4-|
A|-3-3-3-3-3-3-3-3-3-3-3--5--3-3-3-3-3-3-3-3-3-3-3-5-4-3-------------0-2-|
E|-----------------------------------------------------------------------|

e|-----------------|
B|-----------------|
G|-4-4-4-2-4--4-2--|
D|------------4-2--|
A|------------2-0--|
E|-----------------|


repeat intro 1x 


Solo:
e|------------------------------------------------------------------------|
B|-------------2-----------------2-----------------3-5--3---------5-3---3-|
G|-4-4-4-2-4-4--2-4--4-4-4-2-4-4--4-2--4-4-4-2-4-4--------4--2-4-4----4---|
D|------------------------------------------------------------------------|
A|------------------------------------------------------------------------|
E|------------------------------------------------------------------------|

e|------------------------------------------------------------------------|
B|-----3-5-----3-5b--2----2----2-----------------3-5-3--------5-3---3-----|
G|-2-4-----2-4---------4-4-4-4--4-2--4-4-4-2-4-4------4--2-4-4----4---2-4-|
D|------------------------------------------------------------------------|
A|------------------------------------------------------------------------|
E|------------------------------------------------------------------------|

repeat verse and chorus 1x


outro

e|-------------------------------------------------------------|
B|-------------5p3p5p35p3---7b--7h97h97h97h97h97h97h97h9----3b-|
G|-4b-4-2-4b-2-------------------------------------------------|
D|-------------------------------------------------------------|
A|-------------------------------------------------------------|
E|-------------------------------------------------------------|

e|-------------------------------------------------------------|
B|-7-5---7-5---7-5---7-5---7-5---7-5----4-2---4p2-4p2--4b------|
G|----7-5---7-5---7-5---7-5---7-5---7-5----4-2-----------------|2x
D|-------------------------------------------------------------|
A|-------------------------------------------------------------|
E|-------------------------------------------------------------|

e|-10-8----10-8----10-8----12-10b-10^^-7776665544-----|
B|-----10-8----10-8----10-8------------7776665544-----|
G|----------------------------------------------------|
D|----------------------------------------------------|
A|----------------------------------------------------|
E|----------------------------------------------------|


Uk Subs - Squat 96 Lyrics

Criminal justice just for you. 
There ain't nothing you can do.
Kick down the door, change the lock. 
Don't wanna live in a cardboard box.

In a cardboard city - It ain't for me.

Resist eviction in 96.
Don't wanna live on the street.
We don't have no police relations.
Criminalize the corporations - In cardboard city.

In a cardboard city - It ain't for me.

How can we respect the law? 
There's a racist hate.
Kick down the door, change the lock. 
Don't wanna live in a cardboard box.

In a cardboard city - It ain't for me.
Tap to rate this tab
# A B C D E F G H I J K L M N O P Q R S T U V W X Y Z