Guitaretab - guitar tabs
Song name
# A B C D E F G H I J K L M N O P Q R S T U V W X Y Z

Uk Subs - Killer Cops tab

uk subs : killer cops

Intro:     
e|--------------------------------------------------------------|
B|--------------------------------------------------------------|
G|-4-4-4----------4-4-4----------4-4-4----------2-2-2-----------|
D|-4-4-4-5--4-4-4-4-4-4-5--4-4-4-4-4-4-5--4-4-4-2-2-2-3--2-2-2--|
A|-2-2-2-5--4-4-4-2-2-2-5--4-4-4-2-2-2-5--4-4-4-0-0-0-3--2-2-2--|
E|-------3--2-2-2-------3--2-2-2-------3--2-2-2-------1--0-0-0--|

Verse:     
e|-----------------------------------------------------------|
B|-----------------------------------------------------------|
G|-----------------4-4-4-4-4-4-4-4-2-2-2-2-2-2-2-2-2-2-2-2---|
D|-5-5-5-5-5-5-5-5-4-4-4-4-4-4-4-4-2-2-2-2-2-2-2-2-2-2-2-2---|
A|-5-5-5-5-5-5-5-5-2-2-2-2-2-2-2-2-0-0-0-0-0-0-0-0-0-0-0-0---|
E|-3-3-3-3-3-3-3-3-------------------------------------------|

e|-----------------------------------------------------------|
B|-----------------------------------------------------------|
G|-----------------4-4-4-4-4-4-4-4-2-2-2-2-2-2-2-2-2-2-2-2---|
D|-5-5-5-5-5-5-5-5-4-4-4-4-4-4-4-4-2-2-2-2-2-2-2-2-2-2-2-2---|
A|-5-5-5-5-5-5-5-5-2-2-2-2-2-2-2-2-0-0-0-0-0-0-0-0-0-0-0-0---|
E|-3-3-3-3-3-3-3-3-------------------------------------------|


Chorus:     
e|----------------------------------------------------------------------|
B|----------------------------------------------------------------------|
G|-2-2-2-2-4-4-4-4-7-7-7-4--4-4-4-4--2-2-2-2-4-4-4-4-7-7-7-4--4-4-4-4---|
D|-2-2-2-2-4-4-4-4-7-7-7-4--4-4-4-4--2-2-2-2-4-4-4-4-7-7-7-4--4-4-4-4---|
A|-0-0-0-0-2-2-2-2-5-5-5-2--2-2-2-2--0-0-0-0-2-2-2-2-5-5-5-2--2-2-2-2---|
E|----------------------------------------------------------------------|
[ Tab from: http://www.guitaretab.com/u/uk-subs/98997.html ]
e|-------------------------------------------------------------------|
B|-------------------------------------------------------------------|
G|-2-2-2-2-4-4-4-4-7-7-7-4--4-4-4-4--4-4-4----------4-4-4------------|
D|-2-2-2-2-4-4-4-4-7-7-7-4--4-4-4-4--4-4-4-5--4-4-4-4-4-4-5--4-4-4---|
A|-0-0-0-0-2-2-2-2-5-5-5-2--2-2-2-2--2-2-2-5--4-4-4-2-2-2-5--4-4-4---|
E|-----------------------------------------3--2-2-2-------3--2-2-2---|

e|----------------------------------|
B|----------------------------------|
G|-4-4-4----------2-2-2-2-2-2-2-2---|
D|-4-4-4-5--4-4-4-2-2-2-2-2-2-2-2---|
A|-2-2-2-5--4-4-4-0-0-0-0-0-0-0-0---|
E|-------3--2-2-2-------------------|

... repeat verse 1x 

Solo:
e|---------------------------7~-8--10--12--13--15--16--17b~~----|
B|-12~-10---8---7---5b~~~---------------------------------------|
G|--------------------------------------------------------------|
D|--------------------------------------------------------------|
A|--------------------------------------------------------------|
E|--------------------------------------------------------------|

... repeat chorus 2x 



.........................this song is perfect

Lyrics

Your off the street into your car, step on the gas before too far,
lights are flashing into your mirror sirens wail

Killer cops are showing in your town
everywhere you go their putting you down
Killer cops are showing, showing for you

Yesterday we got a speeding ticket now we get grief we don't need it
Today instead we get a bullet in the back of the head

Killer cops are showing in your town 
Better get running they'll be shooting you down
Killer cops are coming in your town
Better get running





Related for Killer Cops tab