Song name
# A B C D E F G H I J K L M N O P Q R S T U V W X Y Z

Uk Subs - Crash Course tab

------------------------------ GUITAR TAB ---------------------------------

UK SUBS : CRASH COURSE 

e|----------------------------|
B|----------------------------|
G|-5-5-5-5-5-5-5-5-5--7-------|
D|-5-5-5-5-5-5-5-5-5--7--7----|6x 
A|-3-3-3-3-3-3-3-3-3--5--7----|
E|-----------------------5----|

e|---------------------------------------------------|
B|---------------------------------------------------|
G|-5-5-5-5-5-5-5-5-5-5-5-5-7-7-7-7-7-7-7-7-7-7-7-7---|
D|-5-5-5-5-5-5-5-5-5-5-5-5-7-7-7-7-7-7-7-7-7-7-7-7---|1x
A|-3-3-3-3-3-3-3-3-3-3-3-3-5-5-5-5-5-5-5-5-5-5-5-5---|
E|---------------------------------------------------|

e|----------------------------|
B|----------------------------|
G|-5-5-5-5-5-5-5-5-5--7-------|
D|-5-5-5-5-5-5-5-5-5--7--7----|4x 
A|-3-3-3-3-3-3-3-3-3--5--7----|
E|-----------------------5----|

e|-----------------------------|
B|-----------------------------|
G|----------------7--------7~--|
D|--5--------5~---7--------7~--|1x
A|--5--------5~---5--------5~--|
E|--3--------3~----------------|

e|----------------------------|
B|----------------------------|
G|-5-5-5-5-5-5-5-5-5--7-------|
D|-5-5-5-5-5-5-5-5-5--7--7----|4x 
A|-3-3-3-3-3-3-3-3-3--5--7----|
E|-----------------------5----|

e|-----------------------------|
B|-----------------------------|
G|----------------7--------7~--|
D|--5--------5~---7--------7~--|1x
A|--5--------5~---5--------5~--|
E|--3--------3~----------------|

Solo is the live version
e|----------------------------------10~10101010101010-12-13~1313131313b13b-|
B|-8-888~8888888-10~10~10B1010101010~--------------------------------------|
G|-------------------------------------------------------------------------|
D|-------------------------------------------------------------------------|
A|-------------------------------------------------------------------------|
E|-------------------------------------------------------------------------|

e|----------------------------|
B|----------------------------|
G|-5-5-5-5-5-5-5-5-5--7-------|
D|-5-5-5-5-5-5-5-5-5--7--7----|6x 
A|-3-3-3-3-3-3-3-3-3--5--7----|
E|-----------------------5----|


....Tabs by yan
Tap to rate this tab
 
# A B C D E F G H I J K L M N O P Q R S T U V W X Y Z