Song name
# A B C D E F G H I J K L M N O P Q R S T U V W X Y Z

Uk - Presto Vivace tab

#----------------------------------PLEASE NOTE---------------------------------#
#This file is the author's own work and represents their interpretation of the #
#song. You may only use this file for private study, scholarship, or research. #
#------------------------------------------------------------------------------##

                            PRESTO VIVACE AND REPRISE
                                      U.K.


Gtr I (E A D G B E) - 'Untitled'

  Q=130            Q=120
 5/8    4/4       7/8
  Gtr I
|------|---------|-14-------------------12--------------------|
|------|---------|----12-12-14-15-14-12----15-15----------12--|
|------|---------|-------------------------------14-13-14-----|
|------|---------|--------------------------------------------|
|------|---------|--------------------------------------------|
|------|---------|--------------------------------------------|


|-------------------------------------------|
|-13----------------------------------------|
|----15-------------------------------------|
|-------12-13----12-13-14-13-12-------12----|
|-------------15----------------15-13----15-|
|-------------------------------------------|


|-------------------------12----------------|
|-------------12-14-15-16-------15-14-------|
|----14-13-------------------15-------14-13-|
|----------14-------------------------------|
|-13----------------------------------------|
|-------------------------------------------|


 7/16
|----------------------|
|----------------------|
|-12----12-13-15-------|
|----15----------12-13-|
|----------------------|
|----------------------|


 7/8
|----------------------------------------------------------|
|----------------------------------------------------------|
|-12-15p14p12----13p12-------------------------------------|
|-------------15-------15p13-12-11-12-14-12-11-14-12-11----|
|-------------------------------------------------------14-|
|----------------------------------------------------------|


|----------------------------------------------------------------|
|----------------------------14-15-17-15-14----14-15-14----------|
|-------------------12-14-16----------------16----------16-12-11-|
|----------12-14-16----------------------------------------------|
|-12-14-16-------------------------------------------------------|
|----------------------------------------------------------------|


  Q=115                                             Q=120
 21/16
|---------------------12-----------------------------------------|
|------------------------15----15-13----13-12----12--------------|
|-9tr10----------------------------------------------14----12----|
|-------10-9-10-12-14-------14-------14-------14--------14----14-|
|----------------------------------------------------------------|
|----------------------------------------------------------------|


 7/8
|----------------------19-|-14-15-14----------------|
|----------------15-18----|----------17-15-14-15-17-|
|-------------16----------|-------------------------|
|-15-14----15-------------|-------------------------|
|-------17----------------|-------------------------|
|-------------------------|-------------------------|



***************************************************************************************
* Generated using Power Tab Editor by Brad Larsen - http://powertab.guitarnetwork.org *
***************************************************************************************
Tap to rate this tab
# A B C D E F G H I J K L M N O P Q R S T U V W X Y Z