Song name
# A B C D E F G H I J K L M N O P Q R S T U V W X Y Z

Uknown - Twinle Twinkle tab

e --------------------------------|  ---------------------------------|
A --0-0-7-7-9-9-7-----------------|  -7-7-5-5---------7-7-5-5---------|
D ----------------9-9-8-8---------|  ---------8-8-6-----------8-8-6---|
G ------------------------11-11-9-|  ---------------------------------|
B --------------------------------|  ---------------------------------|
E --------------------------------|  ---------------------------------|

e -------------------------------------------------|
A -------------------------------------------------|
D -0-0-7-7-9-9-7---9--9--8--8----------------------|
G -----------------------------11--11--9~----------|
B -------------------------------------------------|
E -------------------------------------------------|
Tap to rate this tab
# A B C D E F G H I J K L M N O P Q R S T U V W X Y Z