Guitaretab - guitar tabs
Song name
# A B C D E F G H I J K L M N O P Q R S T U V W X Y Z

Ulf Lundell - Vinterland tab

Vinterland
Ulf Lundell
Tabbed By Mad Mart

Intro x 2

|A E F#m D|A E F#m D|


e|-5-55-4------------------5-4--------------------|
B|--------757------------------757----------------|
G|------------6-76-----------------6-76-----------|
D|------------------7-------------------7---------|
A|------------------------------------------------|
E|------------------------------------------------|


Vers. Fortsätt spela intro (alla verser)


|A E F#m D|A E F#m D| x 4


Brygga. Ingen elgitarr.

| E D E | x 4


Ref.

|A E D E | A E D E| A E D E | A E |


Vers.

|A E F#m D|A E F#m D| x 4


Brygga.

| E D E | x 4


Ref.

|A E D E | A E D E| A E D E | A E D |


Stick.

|D A E| D A E| D A E| F#m D E | F#m D E | D A E |




Solo.

|A E F#m D|A E F#m D|

[ Tab from: http://www.guitaretab.com/u/ulf-lundell/95121.html ]
e|-5-55-4------------------5-4--------------------|
B|--------757------------------757----------------|
G|------------6-76-----------------6-76-----------|
D|------------------7-------------------7---------|
A|------------------------------------------------|
E|------------------------------------------------|


Vers

|A E F#m D|A E F#m D| x 4


Brygga.

| E D E | x 4


Ref.

|A E D E | A E D E| A E D E | A E D |


Outro.

|A E F#m D|A E F#m D|


e|-5-55-4------------------5-4--------------------|
B|--------757------------------757----------------|
G|------------6-76-----------------6-76-----------|
D|------------------7-------------------7---------|
A|------------------------------------------------|
E|------------------------------------------------|



  





 

Related for Vinterland tab
Advertisement will be closed in 10 seconds