Song name
# A B C D E F G H I J K L M N O P Q R S T U V W X Y Z

Ulli Bogershausen - You Are The Sunshine Of My Life tab

You are the Sunshine of my life - Ulli Bogershausen

Tuning: DADGAD

This Song is freakin hard to tab
so i helped you a little
If you have any questions email me at futice@yahoo.com

|----------------------------|
|----------------------------|
|----------------------------|
|----------------------------|
|----------------------------|
|--0-X-0-4--4-5--5-7-5-4-2-0-|


|-----------------------|
|-----------------------|
|-----------------------|
|---------------------0-|
|-----------------0-4---|
|-0-X-0-4--4-5--5-------|


|---------------------------|
|---------------------------|
|---------------------------|
|---------------------------|
|---------------------------|
|-0-X-0-4--4-5--5-7-5-4-2-0-|


|-----------------|----------0-|
|-----------------|--------4---|
|-----------------|----2h4-----|
|-----------------|0h4---------|
|-----------------|------------|
|-0-X-0-4--4-5--5-|------------|


If you can help me through the next fast part please email me at futice@yahoo.com
Tap to rate this tab
# A B C D E F G H I J K L M N O P Q R S T U V W X Y Z