Song name
# A B C D E F G H I J K L M N O P Q R S T U V W X Y Z

Ultima Frontiera - Arditi Sentieri tab

This is my first tab ever, so I've choosen an easy italian song which hadn't been tabbet 
yet. Enjoy!

MAIN RIFF: (played during the short intro by bass, then also by guitar palm muted)

E|-----------------------------------|
B|-----------------------------------|
G|-----------------------------------|
D|-----------------2--2--0--2--0-----|
A|-------0-3-- 3-3-------------------|
E|--3--3-----------------------------|

Filler 1 (0:11) arranged for guitar

E|-------------------------------------------------------------------------|
B|-------------------------------------------------------------------------|
G|--7---9-7------7---------------7----9--7----7----------------------------|
D|----------10-----9---7----7--9-----------10----9--7------7--9--7---------|
A|-----------------------10----------------------------10-----------10-----|
E|-------------------------------------------------------------------------|

OR you could play it at the higher octave (better):

E|--10--12--10------10----------------------10--12--10------10------------------------------|
B|--------------13------12--10------10--12--------------13------12--10------10--12--10------|
G|------------------------------12--------------------------------------12--------------12--|
D|------------------------------------------------------------------------------------------|
A|------------------------------------------------------------------------------------------|
E|------------------------------------------------------------------------------------------|

The main riff last a measure.
Verse: 4 measure of main riff, played by guitar (and bass but you don't care) palm muted
at the end of the fourth measure, play this before chorus:

E|--------------------------|
B|--------------------------|
G|--------------------------|
D|-----0-----0-----0-----0--|
A|--3-----3-----3-----3-----|
E|--------------------------|


During chorus, the following chords are played:

    G5    C5    E5    D5
E|-----------------------|
B|-----------------------|
G|--------5-----9-----7--|
D|--5-----5-----9-----7--|
A|--5-----3-----7-----5--|
E|--3--------------------|

             C5                   D5
E non  un gioco non  una partita
             E5                   D5
Ma semplicemente uno stile di vita

this progression repeats 4 times.
At the end, play D5 chords a few times then play this:

FILLER 2

E|-------------------|
B|-------------------|
G|--0--0--4--2--(0)--|
D|-------------------|
A|-------------------|
E|-------------------|

The (0) overlap with the beginning of the main riff.

after this chorus, play:
2 measures of main riff
1 verse <-- remember stuff and filler we've seen before
1 chorus


the the end of the 2nd chorus and FILLER 2 comes the solo.
The solo is actually the filler 1 repeated, accompanied by the usual G5-C5-E5-D5 progression.

After that, guitar 1 play this:

E|------------------------|
B|------------------------|
G|------------------------|
D|------------------------|
A|--------3--3/7--7\5--5--|
E|--3--3------------------|

and guitar 2


E|-------------------------------|
B|-------------------------------|
G|-------------------------------|
D|--5--5/9--9--9/10--10--9--9\5--|
A|-------------------------------|
E|-------------------------------|


then another chorus, and the song ends with filler 2.


(/) Slide Up  (\) Slide Down  (h) Hammer On  (p) Pull Off  (b) Bend (r) Release (v) Vibrato

made with                                                       http://www.guitartabcreator.com
Tap to rate this tab
 
# A B C D E F G H I J K L M N O P Q R S T U V W X Y Z