Song name
# A B C D E F G H I J K L M N O P Q R S T U V W X Y Z

Ultima Thule - Sorjd Och Saknad tab

Sörjd & Saknad 
Från albumet "Sverige" 
tabulatur gjord på gehör av Johan Alexandersson; jojjemannen@metallican.com tabulatur 
redigerad av Christopher Ling; blabrigader@hotmail.com

1) Introt: Spelas bara 2 gånger
e---3---3---3---------4-------3-------| 
B-----4---4---3---------4---4---4-----| 
G----------------4--------5-------5---| 
D-------------------------------------| 
A-------------------------------------|
E-------------------------------------|

1b) Sen spelar ni:
e---3---------3---------4-------3---------------|
B-----4---4-----3--------4---4----4-------------|
G-------5---------4--------5--------5----------*|
D----------------------------------------------*|
A-----------------------------------------------|
E-----------------------------------------------|

1c) "De gamla dagars hjältar saknar likar av idag": 
e------------------------------------------|
B------------------------------------------|
G------------------------------------------| 
D---5-5-5-5--------------------5-5-5-5-----| 
A---3-3-3-3--5-5-5-5--6-6-6-6--3-3-3-3-----| 
E------------3-3-3-3--4-4-4-4--------------| 
    ~~~~~~~Spelas dämpat~~~~~~~~~~~~~~ 

2) Refrängen: 
e-----------------------|
B-----------------------|
G---------8---------5---| 
D---6-----8----8----5---| 
A---6-----6----8----3---| 
E---4----------6--------| 

3) Solo: 
e--------------------------------------------------| 
B--------------------------------------------------| 
G---8--7--3--5--8--0----12--13--12---8--8h12-------| 
D--------------------------------------------------|
A--------------------------------------------------|
E--------------------------------------------------|

e--------------------------------------------------| 
B--------------------------------------------------| 
G---8--7--3--5--8--0----12--13--12----8-8s12-------| 
D--------------------------------------------------|
A--------------------------------------------------|
E--------------------------------------------------|

Under refrängen spelas någonting i bakgrunden som jag inte har lyssnat ut än. 
Om någon redan har gjort det skulle jag gärna vilja se det =).
Tap to rate this tab
# A B C D E F G H I J K L M N O P Q R S T U V W X Y Z