Song name
# A B C D E F G H I J K L M N O P Q R S T U V W X Y Z

Ultima Thule - Mitt Land tab

E--------------------------------------------|
B--12-------------------12--------------12---|
G------14--12---------------14--12--14-------|
D---------------14--12-----------------------|
A--------------------------------------------|
E--------------------------------------------|

-------------------------------------------|
--12---------------------------------------|
------14--14--12---------14--14--12-----12-|
------------------14--12-------------14----|
-------------------------------------------|
-------------------------------------------|
Tap to rate this tab
# A B C D E F G H I J K L M N O P Q R S T U V W X Y Z