Song name
# A B C D E F G H I J K L M N O P Q R S T U V W X Y Z

Ultima Thule - When Johnny Comes Marching Home tab

Ultima Thule - When Johnny Comes Marching Home

By: skyturnedred@gmail.com

Tuning: Standard EADGBe

. = Palm-mute



INTRO (light distortion):

|----------|
|----------|
|----------|
|----------| x4
|-0-0-0-0--|
|----------|
  . . . .

VERSE1 (light distortion):

"When Johnny comes marching.......Hur-rah, hur-rah."
|-------------------------------------3-------3---|
|-------------------------------------0-------0---|
|-------------------------------------0-------0---|
|-------------------------------------0-------0---|
|-0-0-0-0-0-0-0-0-0-0-0-0-0-0-0-0-----2-------2---|
|---------------------------------333-3---333-3---|
  . . . . . . . . . . . . . . . . ... .   .. .  


"We'll give him a hearty.........Hur-rah, hur-rah!"
|-------------------------------------0-------0---|
|-------------------------------------0-------0---|
|-------------------------------------0-------0---|
|-------------------------------------2-------2---|
|-0-0-0-0-0-0-0-0-0-0-0-0-0-0-0-0-----2-------2---|
|---------------------------------000-0---000-0---|
  . . . . . . . . . . . . . . . . ... .   ...  


"The men will cheer..." "...And we'll all feel..."
|--------------------------------------------------|
|--------------------------------------------------| Heavy distortion
|----------------------------------2---------------| at A5 power chord.
|----------------------------------2---5---3---2---|
|-3-3-3-3-----------------3-3-3-3--0---5---3---2---|
|---------3-3-3-3-1-1-1-1--------------3---1---0---|
  . . . . . . . . . . . . . . . .

"Johnny comes marching  home."
|--------------|
|--------------|
|-2-2-2---2----|
|-2-2-2-5-2----|
|-0-0-0-5-0----|
|-------3------|


VERSE2 etc:


"The old church bell will.........Hur-rah, hur-rah."
|-------------------------------------3-------3---|
|-------------------------------------0-------0---|
|-------------------------------------0-------0---|
|-2-2-2-2-2-2-2-2-2-2-2-2-2-2-2-2-0---0---0---0---|
|-0-0-0-0-0-0-0-0-0-0-0-0-0-0-0-0-222-2---222-2---|
|---------------------------------333-3---333-3---|
  . . . . . . . . . . . . . . . .  .. .    ..  

"To welcome home our..............Hur-rah, hur-rah!"
|-------------------------------------0-------0---|
|-------------------------------------0-------0---|
|-------------------------------------0-------0---|
|-2-2-2-2-2-2-2-2-2-2-2-2-2-2-2-2-2---2---2---2---|
|-0-0-0-0-0-0-0-0-0-0-0-0-0-0-0-0-222-2---222-2---|
|---------------------------------000-0---000-0---|
  . . . . . . . . . . . . . . . .  .. .    ..  

"The village lads..."  "...And we'll all feel..."
|--------------------------------------------------|
|--------------------------------------------------|
|----------------------------------2---------------|
|-5-5-5-5-----------------5-5-5-5--2---5---3---2---|
|-3-3-3-3-5-5-5-5-3-3-3-3-3-3-3-3--0---5---3---2---|
|---------3-3-3-3-1-1-1-1--------------3---1---0---|
  . . . . . . . . . . . . . . . .

"Johnny comes marching  home."
|--------------|
|--------------|
|-2-2-2---2----|
|-2-2-2-5-2----|
|-0-0-0-5-0----|
|-------3------|



SOLO (same chords):

|----------------------------------------------------------|
|----------------------------------------------------------|
|-----------------------------------------------7-9---7-9--|
|-7-7-7-9-10-9-10-7-------------7-7-7-9-10-9-10------------|
|-------------------10---7-10------------------------------|
|----------------------------------------------------------|


|-------------------------------------------------------------|
|-------------------------------------------------------------|
|-7-9-9-9-7----7-7-7------------7-9--9--7---------------------|
|-----------10-------9-10-10-10------------10--9--7-7-7----7--|
|-------------------------------------------------------10----|
|-------------------------------------------------------------|


Verse I.

   When Johnny comes marching home again,
   Hur-rah, hur-rah.
   We'll give him a hearty welcome then,
   Hur-rah, hur - rah!
   The men will cheer and the boys will shout,
   The ladies they will all turn out.
   And we'll all feel gay when,
   Johnny comes marching  home.

Verse II.

   The old church bell will peal with joy,
   Hur-rah, hur-rah.
   To welcome home our darling boy,
   Hur-rah, hur - rah!
   The village lads and lassies say,
   With roses they will strew the way.
   And we'll all feel gay when,
   Johnny comes marching  home.

Verse III.

   Get ready for the jubilee,
   Hur-rah, hur-rah.
   We'll give the hero three times three,
   Hur-rah, hur - rah!
   The laurel wreath is ready now,
   To place upon his loyal brow.
   And we'll all feel gay when,
   Johnny comes marching  home.


Verse IV.

   Let love and friendship on that day,
   Hur-rah, hur-rah.
   Their choicest pleasures then display,
   Hur-rah, hur - rah!
   And let each one perform some part,
   To fill with joy the warrior's heart.
   And we'll all feel gay when,
   Johnny comes marching  home.
Tap to rate this tab
# A B C D E F G H I J K L M N O P Q R S T U V W X Y Z