Song name
# A B C D E F G H I J K L M N O P Q R S T U V W X Y Z

Ultima Thule - The God Of Light tab

Ultima Thule - The God of Light

By: skyturnedred@gmail.com

Tuning: Standard EADGBe

. = Palm-mute


INTRO:

  E5
|----------|
|----------|
|----------|
|-2222....-|
|-2222....-|
|-0000....-|


  E5        G5        A5        E5
|--------------------------------------------|
|--------------------------------------------|
|--------------------------------------------|
|-2--2-2-2--5--5-5-5--7--7-7-7--2--2-2-2-----|
|-2--2-2-2--5--5-5-5--7--7-7-7--2--2-2-2-----|
|-0--0-0-0--3--3-3-3--5--5-5-5--0--0-0-0-----|

  E5        G5        A5        E5
|--------------------------------------------|
|--------------------------------------------|
|-------------------------------9--9-9-9-----|
|-2--2-2-2--5--5-5-5--7--7-7-7--9--9-9-9-----|
|-2--2-2-2--5--5-5-5--7--7-7-7--7--7-7-7-----|
|-0--0-0-0--3--3-3-3--5--5-5-5--0--0-0-0-----|


RIFF:

  E5           G5         A5           E5
|--------------------------------------------|
|--------------------------------------------|
|-7h9-9-9--9-9p7----------7h9-9-9--9-9p7-----| x2
|---------------9-9----------------------9---|
|-------------------7------------------------|
|--------------------------------------------|


VERSE:
 
  E5       G5       A5       E5
|--------------------------------------|
|--------------------------------------|
|--------------------------------------|
|--------------------------------------| x2
|-22222222-55555555-77777777-22222222--|
|-00000000-33333333-55555555-00000000--|
  ........ ........ ........ ........


|--------------------------------------|
|--------------------------------------|
|--------------------------------------|
|--2--2-----5--5-----7--7-----2--2-----|
|-22-22-22-55-55-55-77-77-77-22-22-22--|
|-00-00-00-33-33-33-55-55-55-00-00-00--|
  .  .  .. .  .  .. .  .  .. .  .  ..

|--------------------------------------|
|--------------------------------------|
|--------------------------------------|
|--2--2-----5--5-----7--7-----2--------|
|-22-22-22-55-55-55-77-77-77-22--------|
|-00-00-00-33-33-33-55-55-55-00--------|
  .  .  .. .  .  .. .  .  .. .  


CHORUS:

  C5      A5     E5      C5      A5     E5
|-------------------------------------------|
|-------------------------------------------|
|-------------------------------------------|
|---------2----------------------2----------|
|-3-3-3-5----5-3-2--3-2--3-3-3-5----5-3-2---|
|-------------------------------------------|


   D5   C5   E5      <--maybe?
|-----------------|
|-----------------|
|-----------------|
|------------2----|
|--5----3---------|
|-----------------|


END SOLO:

  E5 G5 A5 E5 etc
|---------------------------------------|
|---------------------------------------|
|-7h9-9-9-7h9-9-9-7h9-9-9-7h9-9-9--etc--|
|---------------------------------------|
|---------------------------------------|
|---------------------------------------|
Tap to rate this tab
# A B C D E F G H I J K L M N O P Q R S T U V W X Y Z