Song name
# A B C D E F G H I J K L M N O P Q R S T U V W X Y Z

Ultima Thule - Ensamt Ga tab

Ultima Thule - Ensamt Öga

By: skyturnedred@gmail.com

Tuning: Standard EADGBe

. = Palm-mute


INTRO:

|------------------------------------------|
|------------------------------------------|
|--------2--------------5----7-------------|
|---2----2----2----2----5----7----2----2---|x2
|---2--0000---2----2--3333-5555---2----2---|
|-0000------0000-0000-----------0000-0000--|
  .. . .. . .. . .. . .. . .. . .. . .. .


RIFF:

Gtr1
|------------------------------------------|
|------------------------------------------|
|--------2--------------5----7-------------|
|---2----2----2----2----5----7----2----2---|
|---2--0000---2----2--3333-5555---2----2---|
|-0000------0000-0000-----------0000-0000--|
| .. . .. . .. . .. . .. . .. . .. . .. .  |
|                                          |  x2
Gtr2                                       |
|------------------------------------------|
|------------------------------------------|
|------------------------------------------|
|---------------------5--4--5-4-2----------|
|--7--5--3-2-3-5-7-------------------------|
|------------------0-----------------------|


VERSE:

|------------------------------------------|
|------------------------------------------|
|--------2--------------5----7-------------|
|---2----2----2----2----5----7----2----2---|x2
|---2--0000---2----2--3333-5555---2----2---|
|-0000------0000-0000-----------0000-0000--|
  .. . .. . .. . .. . .. . .. . .. . .. .


CHORUS:

|---------------------------------|
|---------------------------------|
|---------------------------------|
|-5-------5-----5-2-------2-----2-|
|-5-------5-----5-2-------2-----2-|
|-3-------3-----3-0-------0-----0-|


|---------------------------------|
|---------------------------------|
|---------------------------------|
|-5-------5-----5-7-------7-----7-|
|-5-------5-----5-7-------7-----7-|
|-3-------3-----3-5-------5-----5-|


Repeat RIFF
Repeat VERSE
Repeat CHORUS

CHORUS continued:
|---------------------------------|
|---------------------------------|
|---------------------------------|
|-5----5--5--5--5-7-------7-------|
|-5----5--5--5--5-7-------7-------|
|-3--33333333333335-------5-------|
     .. .. .. .. .

Repeat RIFF
Repeat VERSE
Repeat CHORUS (also CHORUS continued)

OUTRO

Gtr1
|------------------------------------------|
|------------------------------------------|
|--------2--------------5----7-------------|
|---2----2----2----2----5----7----2----2---|
|---2--0000---2----2--3333-5555---2----2---|
|-0000------0000-0000-----------0000-0000--|
| .. . .. . .. . .. . .. . .. . .. . .. .  |
|                                          |
Gtr2                                       |
|------------------------------------------|
|------------------------------------------|
|------------------------------------------|
|---------------------5--4--5-4-2----------|
|--7--5--3-2-3-5-7-------------------------|
|------------------0-----------------------|

Gtr1
|------------------------------------------|
|------------------------------------------|
|--------2--------------5----7-------------|
|---2----2----2----2----5----7--2----------|
|---2--0000---2----2--3333-5555-2----------|
|-0000------0000-0000-----------0----------|
| .. . .. . .. . .. . .. . .. .            |
|                                          |
Gtr2                                       |
|------------------------------------------|
|------------------------------------------|
|------------------------------------------|
|---------------------5--4--5-4-2----------|
|--7--5--3-2-3-5-7-------------------------|
|------------------0-----------------------|
Tap to rate this tab
 
# A B C D E F G H I J K L M N O P Q R S T U V W X Y Z