Song name
# A B C D E F G H I J K L M N O P Q R S T U V W X Y Z

Ultima Thule - Ensamt Oga Ii tab

Ensamt Oga II by: Ultima Thule.

Intro/Interlude:
   E                        D        B                        C
E|--------------------------------------------------------------------|
B|--------------------------------------------------------------------|
G|-4-4-4--4-4-4-4--4-4-4-4--2-2-2-2-----------------------------------|
D|-2-2-2--2-2-2-2--2-2-2-2--0-0-0-0--4-4-4--4-4-4-4--4-4-4-4--5-5-5-5-|
A|-----------------------------------2-2-2--2-2-2-2--2-2-2-2--3-3-3-3-|
E|--------------------------------------------------------------------|X4

Lead:
E|------------------------|
B|------------------------|
G|-------------------2-4--|
D|--2--4------4-5---------|
A|--------2---------------|
E|------------------------|

Verse:

   E             C           E
E|---------    --------------------------|
B|---------    --------------5--5--------|
G|-4-4-4-4-    --5--5--------4-----4-----|
D|-2-2-2-2-X8  --5-----5-----2--------2--|
A|---------    --3--------3--------------|
E|---------    --------------------------| X2

Chorus:
   E               D               C
E|-----------------------------------------------------------------|
B|-----------------------------------------------------------------|
G|-4-4-4-4-4-4-4-4-2-2-2-2-2-2-2-2---------------------------------|
D|-2-2-2-2-2-2-2-2-0-0-0-0-0-0-0-0-5-5-5-5-5-5-5-5-5-5-5-5-5-5-5-5-|
A|---------------------------------3-3-3-3-3-3-3-3-3-3-3-3-3-3-3-3-|
E|-----------------------------------------------------------------|X2

   E             D             C             B
E|----------------------------------------------------------------------|
B|----------------------------------------------------------------------|
G|-4-4-4--4-4-4--2-2-2--2-2-2-------------------------------------------|
D|-2-2-2--2-2-2--0-0-0--0-0-0--5-5-5--5-5-5--4-4-4--4-4-4--4-4-4--4-4-4-|
A|-----------------------------3-3-3--3-3-3--2-2-2--2-2-2--2-2-2--2-2-2-|
E|----------------------------------------------------------------------|


Finish the song with two E7 powerchords.



By:themechanix100
Tap to rate this tab
# A B C D E F G H I J K L M N O P Q R S T U V W X Y Z