Song name
# A B C D E F G H I J K L M N O P Q R S T U V W X Y Z

Ultima Thule - Drakskepp tab

Drakskepp by: Ultima Thule

Intro/chorus:

      F    C    D         F    C    D
E|--------------------------------------------|
B|--------------------------------------------|
G|--------------------------------------------|
D|---------5----7----7---------5----7----7----|
A|----3----3----5----5----3----3----5----5----|
E|----1-------------------1-------------------|

      G    F    D
E|------------------------|
B|------------------------|
G|------------------------|
D|--------------7----7----|
A|----5----3----5----5----|
E|----3----1--------------|

    D                        C
E|-------------------------|-------------|
B|-------------------------|-------------|
G|-------------------------|-------------|
D|--7--7--7--7--7--7--7--7-|---5----5----|
A|--5--5--5--5--5--5--5--5-|---3----3----|
E|-------------------------|-------------| X2
    .  .  .  .  .  .  .  .\
                           X7

Lead:

E|-----------------------------------------------------------|
B|-----------------------------------------------------------|
G|-----------------------------------------------------------|
D|-----------7--5-----------------------7--5-----------------|
A|--5--7--8--------8--7--8--5--5--7--8--------8--7--8--------|
E|-----------------------------------------------------8--8--|

Verse:

    D                    C    D
E|--------------     --------------|
B|--------------     --------------|
G|--------------     --------------|
D|--7--7--7--7--     ----5----7----|
A|--5--5--5--5--     ----3----5----|
E|-------------- X12 --------------|
    .  .  .  .
Tap to rate this tab
# A B C D E F G H I J K L M N O P Q R S T U V W X Y Z