Song name
# A B C D E F G H I J K L M N O P Q R S T U V W X Y Z

Ultima Thule - Carl Von Roland tab

    ULTIMA THULE - CARL VON ROLAND

Allt som den ena gitarren
och basen spelar ?r: C G# C  Fh D# C


Intro:
------------------------------|
------------------------------|
-5p35p35p35p35p35p35p35p3-5---|
------------------------------|
------------------------------|
------------------------------|


--------------3-----3---------|
----------------6-4---1-------|
-5-8-7-8-5--------------------|
------------------------------|
------------------------------|
------------------------------|

Mellanspel:
---------------------------------|
-4-4--4-4--8-8----8-8-3-3-4---4--|
-5----5----8------8---3---5-4-5--|
-5----6----8---9--8---3---5---5--|
-3----6----6------6---1---3-2-3--|
------4--------7-----------------|


/metal_up_your_ass@2die4.com
Tap to rate this tab
 
# A B C D E F G H I J K L M N O P Q R S T U V W X Y Z