Song name
# A B C D E F G H I J K L M N O P Q R S T U V W X Y Z

Ultra Vomit - I Like To Vomit tab

Ultra Vomit: I Like To Vomit
From the album M. Patate
Tabbed by Girdnygrind (Alex)
(c)Sacral Production
Tune to AEADF#B
Official Website: http://ultra.vomit.free.fr/

Suffixes:
" = Tremelo
h = Hammer on
p = pull off
. = Palm Muted
L = Let Ring
x = Mute Immediately

0:00 - 0:20 (No guitar)

(0:21) Riff A:
B |--------------------------|
F#|--------------------------|
D |--------------------------|
A |--------------------------|
E |0--0--0--0-7-3--3--2-5-3-6|
A |0--0--0--0-7-3--3--2-5-3-6| (x2)


(0:29) Riff Ba:
B |-------------------------------|
F#|-------------------------------|
D |-------------------------------|
A |-------------------------------|
E |7-6-3-2-0-2-3-6-7-6-3-2-0-2-3-6|
A |7-6-3-2-0-2-3-6-7-6-3-2-0-2-3-6| (x3)


(0:39) Riff Bb:
B |---------------------------------|
F#|---------------------------------|
D |---------------------------------|
A |---------------------------------|
E |7-6-3-2-0-2-3-6-7-6-3-2-0-2-3-6-7|
A |7-6-3-2-0-2-3-6-7-6-3-2-0-2-3-6-7| (x1)
     . . .   . . .   . . .   . . .

(0:43) Riff Ca:
B |-----------------------|
F#|-----------------------|
D |-----------------------|
A |-----------------------|
E |-----------------------|
A |7-6h7p6-3-2h3p2-0-2-3-6| (x1)

(0:45) Riff Cb
B |-----------------------------|
F#|-----------------------------|
D |-----------------------------|
A |-----------------------------|
E |------------------2-2-3-3-6-6|
A |7-6h7p6-3-2h3p2-0-2-2-3-3-6-6| (x1)
                     . . . . . .
(0:48 ) Riff Cc
B |-----------------------|
F#|-----------------------|
D |-----------------------|
A |-----------------------|
E |-----------------------|
A |7-6h7p6-3-2h3p2-0-2-3-6| (x4)
   " " " " " " " " " " " "

(00:58) (Guitar One)
B |----------------|
F#|----------------|
D |----------------|
A |----------------|
E |0-----0----3-2-1|
A |0L----0x---3-2-1| (x1)
              . .

(0:58) (Guitar Two) Riff D
B |------------------|
F#|------------------|
D |------------------|
A |------------------|
E |-------------3-2-1|
A |00-7-3-66-00-3-2-1| (x1)
   "" " " "" "" . . 

(1:01) (Both Guitars)
B |------------------|
F#|------------------|
D |------------------|
A |------------------|
E |-------------3-2-1|
A |00-7-3-66-00-3-2-1| (x1)
   "" " " "" "" . . 

(1:05) Riff Ea
B |------------------------------------|
F#|------------------------------------|
D |------------------------------------|
A |------------------------------------|
E |0-00-0-00-0-00-0-7-3-33-3-33-2-5-3-6|
A |0-00-0-00-0-00-0-7-3-33-3-33-2-5-3-6| (x1)
     ..   ..   ..       ..   .. 

(1:08) Riff Eb 
B |------------------------------------------|
F#|------------------------------------------|
D |------------------------------------------|
A |------------------------------------------|
E |0-00-0-00-0-00-0-7-3-33-3-33-2-5--------0x|
A |0-00-0-00-0-00-0-7-3-33-3-33-2-5--------0x|(x1)
     ..   ..   ..       ..   .. . .  

I am not going to include Bouba in this tab.
Whyever the hell they put that in the end of the song is beyond my concern.
HAVE FUN!



Tap to rate this tab
# A B C D E F G H I J K L M N O P Q R S T U V W X Y Z