Song name
# A B C D E F G H I J K L M N O P Q R S T U V W X Y Z

Ultra Vomit - Une Souris Verte tab

Ultra Vomit: Une Souris Verte
From the album M. Patate
Tabbed by Girdnygrind (Alex)
(c)Sacral Production
Tune to AEADF#B
Official Website: http://ultra.vomit.free.fr/

Siffixes:
x Mute Immediately
. Palm Mute
" = Tremelo

(0:01) Guitar 1
B |--|
F#|--|
D |--|
A |--|
E |0x|
A |0x|(x1)

(0:01) Guitar 2 Riff A
B |-------------------------------|
F#|-------------------------------|
D |-------------------------------|
A |-------------------------------|
E |0-0-0-1-0-0-0-0-0-0-0-1/5-5-5-5|
A |0-0-0-1-0-0-0-0-0-0-0-1/5-5-5-5|(x2)
     . .   . . . . . . . 

(0:05) Riff A (Both Guitars)
B |-------------------------------|
F#|-------------------------------|
D |-------------------------------|
A |-------------------------------|
E |0-0-0-1-0-0-0-0-0-0-0-1/5-5-5-5|
A |0-0-0-1-0-0-0-0-0-0-0-1/5-5-5-5| (x4)
     . .   . . . . . . . 

(0:15) Riff B
B |------------------|
F#|------------------|
D |------------------|
A |------------------|
E |0--1-0--1-0--1-5-4|
A |0--1-0--1-0--1-5-4| (x2)
      .    .    .

(0:19) Riff A: (x2)

(0:23) Riff Ca: 
F#|-------------------------------|
D |-------------------------------|
A |-------------------------------|
E |2-1-3-1-2-1-3-1----------------|
A |2-1-3-1-2-1-3-1-2-1-3-1-2-1-3-1| (x1)
   . . . . . . . . " " " " " " " "
    

(0:28) Riff Cb:
B |--------------------------------------------------|
F#|--------------------------------------------------|
D |--------------------------------------------------|
A |--------------------------------------------------|
E |2-1-3-1-2-1-3-1-------------5-4-0--1-0--1-0--1-5-4|
A |2-1-3-1-2-1-3-1-2-1-3-1-2-1-5-4-0--1-0--1-0--1-5-4| (x1)
   . . . . . . . . " " " " " " 

(0:34) Riff B: x2

(0:39) Guitar One
B |---------------------------------------------------------|
F#|---------------------------------------------------------|
D |---------------------------------------------------------|
A |---------------------------------------------------------|
E |0-----------------------5-4-------------------------3-2-1|
A |0-----------------------5-4-------------------------3-2-1|
                           . .                         . . .
(o:39) Guitar Two
B |---------------------------------------------------------|
F#|---------------------------------------------------------|
D |---------------------------------------------------------|
A |---------------------------------------------------------|
E |------------------------5-4-------------------------3-2-1|
A |0-0-0-1-0-0-0-1-0-0-0-1-5-4-0-0-0-1-0-0-0-1-0-0-0-0-3-2-1|
                           . .                         . . .

(0:44) Both Guitars
B |-------------------------------------------|
F#|-------------------------------------------|
D |-------------------------------------------|
A |-------------------------------------------|
E |----3-2-1-----3-2-1-----3-2-3-4-5-4-3-4-3-2|
A |000-3-2-1-000-3-2-1-000-3-2-3-4-5-4-3-4-3-2| (x4)
   """ . . . """ . . . """ . . . .   . .   . .

(1:02) 
B |---------------------|
F#|---------------------|
D |---------------------|
A |---------------------|
E |0--1-0--1-0--1-5-4-0-|
A |0--1-0--1-0--1-5-4-0x|
                  . .
Have fun!


Tap to rate this tab
# A B C D E F G H I J K L M N O P Q R S T U V W X Y Z