Song name
# A B C D E F G H I J K L M N O P Q R S T U V W X Y Z

Ultra Vomit - Reborn From Death tab

Ultra Vomit: Reborn From Death
From M. Patate
Tabbed by Girdnygrind
(c) Sacral Production
Tune to AEADF#B

Suffixes:
" = Tremelo
. = Palm Mute
ph = Pinch Harmonic
L = Let Ring
/ = Slide up to
\ = Slide down to
x = Mute immediately

(0:04) Pre-Riff Aa (Guitar 1):
B |-------------------|
F#|-------------------|
D |-------------------|
A |6----9x----6----5\x|
E |-------------------|
A |6----9x----6----5\x|
   L          L

(0:10) Riff Aa:
B |-------------------------------|
F#|-------------------------------|
D |-------------------------------|
A |-------------------------------|
E |-------------------------------|
A |6-5-0-1-4-3-0-1-6-5-0-1-4-3-0-1|(x2)
   " " " " " " " " " " " " " " " "

(0:16) Riff Ab:
B |----------------------|
F#|----------------------|
D |----------------------|
A |----------------------|
E |6--5--0--1--4--3--0--1|
A |6--5--0--1--4--3--0--1|(x2)
   L  L  L  L  L  L  L  L

(0:22) Riff Aa: (x2)

(0:27) Riff Ac:
B |----------------------|
F#|----------------------|
D |----------------------|
A |----------------------|
E |6--5--0--1--4--3--0--1|
A |6--5--0--1--4--3--0--1| (x2)
         .  .        .  .

(0:32) Riff Ad:
B |-------------------------------|
F#|-------------------------------|
D |-------------------------------|
A |-------------------------------|
E |6-5-0-1-4-3-0-1-6-5-0-1-4-3----|
A |6-5-0-1-4-3-0-1-6-5-0-1-4-3-3ph|(x1)
       . . . . . .     . . . .

B |-------------------------------|
F#|-------------------------------|
D |-------------------------------|
A |-------------------------------|
E |6-5-0-1-4-3-0-1-6-5-0-1-4-3-0-1|
A |6-5-0-1-4-3-0-1-6-5-0-1-4-3-0-1|(x1)
       . . . . . .     . . . . . .

(0:39) Pre Riff B:
B |---------------|
F#|---------------|
D |---------------|
A |6x------------2|
E |6x------------2|
A |6x------------2|(x1)
                 L


(0:43) Riff B:
B |-------------------------------|
F#|-------------------------------|
D |-------------------------------|
A |-------------------------------|
E |6-6-5-5-0-0-1-1-4-4-3-3-0-0-1-1|
A |6-6-5-5-0-0-1-1-4-4-3-3-0-0-1-1|(x1)
   . . . . . . . . . . . . . . . .

B |-----------------------------|
F#|-----------------------------|
D |-----------------------------|
A |-----------------------------|
E |6--5--0-0-1-1-4--3--0000-1111|(x1)
A |6--5--0-0-1-1-4--3--0000-1111|<---Quadruplets (0's and 1's)
   L  L  . . . . L  L  .... ....

B |---------------------------------------|
F#|---------------------------------------|
D |---------------------------------------|
A |---------------------------------------|
E |6666-5555-0000-1111-4444-3333-0000-1111|
A |6666-5555-0000-1111-4444-3333-0000-1111|(x1)
   .... .... .... .... .... .... .... ....

B |-------------------------------|
F#|-------------------------------|
D |-------------------------------|
A |-------------------------3-----|
E |6666-5555-0000-1111-4444-3--0-1|
A |6666-5555-0000-1111-4444-3--0-1|(x1)
   .... .... .... .... .... L  . .

(0:57) Riff C:
B |------------------------|
F#|------------------------|
D |------------------------|
A |----------------------1x|
E |4-3-0-1-4-3-0-1-4-3-0-1x|
A |4-3-0-1-4-3-0-1-4-3-0-1x|(x1)
       . .     . .     .
Tap to rate this tab
# A B C D E F G H I J K L M N O P Q R S T U V W X Y Z