Song name
# A B C D E F G H I J K L M N O P Q R S T U V W X Y Z

Ultra Vomit - Montrez Moi Vos Miches Madame tab

Andreas et Nicolas
Montrez moi vos miches madame

Voilà ma tab de cette chanson (jouée par andreas et nicolas), j'étais ennuyé
lorsque je n'ai trouvé aucune tab décrivant ce morceau dans son entièreté, 
alors je l'ai repiqué à l'oreille, ma tab est plutôt approximative, j'espère
toutefois qu'elle servira à quelques personnes. Désolé pour la difficulté de 
compréhension de certaines parties de cette tab.
Sinon à par ça, j'ai mis les paroles tout en bas, je vous souhaite à tous 
une bonne éclate avec cette chanson !

Accordage normal.

E|-----------------------------------------------------------|
B|------3-----3-----0-------3-------3-----3-----1-------3----|
G|----0-----0-----0---0---2---0---0-----0-----2---2---2---0--|
D|----------------------0---------------------------0--------|
A|------------------------------3-----2-----0----------------|
E|--3-----2-----0--------------------------------------------|

E|---------------------------------------------------2-------|
B|------3-----3-----0-------3-------3-----3-----1----3-------|
G|----0-----0-----0---0---2---0---0-----0-----2---2--2-------|
D|----------------------0----------------------------0-------|
A|------------------------------3-----2-----0----------------|
E|--3-----2-----0--------------------------------------------|

E|-------------------------------------3-----------2---------|
B|------3-----3-----0-------3-------3--3--------3--3---------|
G|----0-----0-----0---0---2---0---0----0------2----2---------|
D|----------------------0--------------2----0------0---------|
A|------------------------------3------3---------------------|
E|--3-----2-----0--------------------------------------------|

E|-------------------------------------3-----------2---------|
B|------3-----3-----0-------3-------3--3--------3--3---------|
G|----0-----0-----0---0---2---0---0----0------2----2---------|
D|----------------------0--------------2----0------0---------|
A|------------------------------3------3---------------------|
E|--3-----2-----0--------------------------------------------|




E|--0--|        |
B|--1--|        |
G|--0--| X8     |
D|--2--|        |
A|--3--|        |
E|-----|        |
   P.M          |X2
E|--2--|        |
B|--3--|        |
G|--2--| X8     |
D|--0--|        |
A|-----|        |
E|-----|        |
   P.M

E|--2--   --0-2-3--|
B|--3--   --3-3-3--|
G|--2--X5 --2-2-2--|
D|--0--   --0-0-0--|
A|-----   ---------|
E|-----   ---------|



E|--------------------------------------------0------2-------|
B|------3-----3-----0-------3-------3-----3---1------3-------|
G|----0-----0-----0---0---2---0---0-----0-----2--X7--2-------|
D|----------------------0---------------------2------0-------|
A|------------------------------3-----2-------0--------------|
E|--3-----2-----0--------------------------------------------|
                                             P.M

E|--------------------------------------------0------2-------|
B|------3-----3-----0-------3-------3-----3---1------3-------|
G|----0-----0-----0---0---2---0---0-----0-----2--X8--2--X8---|
D|----------------------0---------------------2------0-------|
A|------------------------------3-----2-------0--------------|
E|--3-----2-----0--------------------------------------------|
                                             P.M



E|-----------------------------------------------------------|
B|------3-----3-----0-------3-------3-----3-----1-------3----|
G|----0-----0-----0---0---2---0---0-----0-----2---2---2---0--|
D|----------------------0---------------------------0--------|
A|------------------------------3-----2-----0----------------|
E|--3-----2-----0--------------------------------------------|

E|-------------------------------------3-----------2---------|
B|------3-----3-----0-------3-------3--3--------3--3---------|
G|----0-----0-----0---0---2---0---0----0------2----2---------|
D|----------------------0--------------2----0------0---------|
A|------------------------------3------3---------------------|
E|--3-----2-----0--------------------------------------------|




E|--0--|        |
B|--1--|        |
G|--0--| X8     |
D|--2--|        |
A|--3--|        |
E|-----|        |
   P.M          |X2
E|--2--|        |
B|--3--|        |
G|--2--| X8     |
D|--0--|        |
A|-----|        |
E|-----|        |
   P.M

E|--2--   --0-2-3--|
B|--3--   --3-3-3--|
G|--2--X5 --2-2-2--|
D|--0--   --0-0-0--|
A|-----   ---------|
E|-----   ---------|



E|--------------------------------------------0------0-2-----|
B|------3-----3-----0-------3-------3-----3---1------1-3-----|
G|----0-----0-----0---0---2---0---0-----0-----2--X7--2-2-----|
D|----------------------0---------------------2------2-0-----|
A|------------------------------3-----2-------0------0-------|
E|--3-----2-----0--------------------------------------------|
                                             P.M

E|--------------------------------------------0------2-------|
B|------3-----3-----0-------3-------3-----3---1------3-------|
G|----0-----0-----0---0---2---0---0-----0-----2--X8--2--X8---|
D|----------------------0---------------------2------0-------|
A|------------------------------3-----2-------0--------------|
E|--3-----2-----0--------------------------------------------|


n = noire, c = croche

n  c  c  c  c  c  c  n  c  c  c c c c     n     c     c     c  c  c  c  n  c  c  c  c
G  G  G  F# F# F# Em Em Em Em D D D Cadd9 Cadd9 Cadd9 Cadd9 B  B  B  Am Am D  D  D  D ->(accords)

n  c  c  c  c  c  c  n  c  c  c c c c     n     c     c     c  c  c  c  n  c
G  G  G  F# F# F# Em Em Em Em D D D Cadd9 Cadd9 Cadd9 Cadd9 B  B  B  Am Am D ->(accords)




E|--------------------------------------2----|
B|------3-----3-------0--------1------3------|
G|----0-----0-------0--------0------2--------|
D|----------------2--------2------0----------|
A|-----------------------3-------------------|
E|--3-----2-----0----------------------------|

E|--------------------------------------2----|
B|------3-----3-------0--------1------3------|
G|----0-----0-------0--------0------2--------|
D|----------------2--------2------0----------|
A|-----------------------3-------------------|
E|--3-----2-----0----------------------------|



E|--0--|        |
B|--1--|        |
G|--0--| X8     |
D|--2--|        |
A|--3--|        |
E|-----|        |
   P.M          |
E|--2--|        |
B|--3--|        |
G|--2--| X8     |
D|--0--|        |
A|-----|        |
E|-----|        |
   P.M

G-G-G---F#-F#-F#---Em-Em-Em---Em--Em--Em--Em

E|--0--|        |
B|--1--|        |
G|--0--| X8     |
D|--2--|        |
A|--3--|        |
E|-----|        |
   P.M          |X2
E|--2--|        |
B|--3--|        |
G|--2--| X8     |
D|--0--|        |
A|-----|        |
E|-----|        |
   P.M

E|--2--   --0-2-3--|
B|--3--   --3-3-3--|
G|--2--X5 --2-2-2--|
D|--0--   --0-0-0--|
A|-----   ---------|
E|-----   ---------|



n  c  c  c  n  c  n  c  c  c  n  c      n     c     c     c  n  c  n  c  c  c  c  c  c  c  c  c
G  G  G  G F# F# Em Em Em Em  D  D  Cadd9 Cadd9 Cadd9 Cadd9  B  B Am Am Am Am Am Am Am Am Am  D

n  c  c  c  n  c  n  c  c  c  n  c      n     c     c     c  n  c  c
G  G  G  G F# F# Em Em Em Em  D  D  Cadd9 Cadd9 Cadd9 Cadd9  B  B Am

n  c  c  c  n  c  n  c  c  c  n  c      n     c     c     c  n  c  n  c  c  c  c  c  c  c  c  c
G  G  G  G F# F# Em Em Em Em  D  D  Cadd9 Cadd9 Cadd9 Cadd9  B  B Am Am Am Am Am Am Am Am Am  D



E|-----------------------------------------------------------2-|
B|------3-----3-----0-------3-------3-----3-------1-0--------3-|
G|----0-----0-----0---0---2---0---0-----0-------2-----2---2--2-|
D|----------------------0---------------------2---------2----0-| + G détaché
A|------------------------------3-----2-----0------------------|
E|--3-----2-----0----------------------------------------------|




Paroles :

Je me promenais dans mon p'tit quartier à la recherche du conte de fée.
Je me baladais au cœur du marché à la recherche d'une dulcinée.
J'me suis approché d'la boulangère.
J'aimerai préciser qu'elle était belle, belle !

Montrez-moi vos miches madame !
Je vous paierai très cher, pour les goûter.
Et j'vous invite à dîner !

Je n'ai pas tout de suite compris.
P'têtre qu'elle a mal compris ?
J'ai demandé du pain et s'elle m'a offert un pain … dans la gueule !!!

Je me promenais dans mon p'tit quartier à la recherche du conte de fée.
Je me baladais au cœur du marché à la recherche d'une dulcinée.
J'me suis approché des marchandes de fruits de mer.
J'aimerai préciser qu'elles étaient belles, belles !

Montrez-moi vos moules mesdames !!
J'aimerai les renifler, pour vérifier,
Si elles sont fraîches.

Je n'ai pas tout de suite compris .
P'têtre qu'elles ont mal compris ?
J'ai demandé des moules mais elles m'ont offert un pain … dans les boules !!!

mmmmmmmmmmmm...

Personne, non personne ne m'a épousé au cours de cette virée au marché. 
Personne, non personne ne m'a jamais aimé depuis le jour où je suis né.

Je n'emploie pas la bonne méthode avec ces femmes qui me snobent.
J'ai décidé de changer !
J'suis r'tourné voir la boulangère !

Montre-moi tes miches salope !
Je n'parle pas d'ton pain !
Mais de tes fesses de pute !
Fais moi l'amour putain !
Montre-moi ton sexe connasse !
Fais-moi une pipe pouffiasse !
Tu sais si je t'insulte,
c'est parce que je veux baiser !
Montre-moi tes miches salope !
Je n'parle pas d'ton pain !
Mais de tes fesses de pute !
Fais moi l'amour putain !

Là elle ne m'a pas frappé.
J'étais embarrassé.
Et elle s'est approché.
Et elle m'a embrassé.

Merci à vous d'avoir lu ma tab, j'espère qu'elle vous à plu.
Tap to rate this tab
# A B C D E F G H I J K L M N O P Q R S T U V W X Y Z