Song name
# A B C D E F G H I J K L M N O P Q R S T U V W X Y Z

Ultrage A Rigor - Cime chords

Highlighted       Show chord diagrams
Intro:
 A C D Dm
Ô Ô Ô Ô
 A C D Dm
Ô Ô Ô Ô

Solo:

E|----------------------------------------------|
B|-------15-12--12h13-12------------------------|
G|-12-12------------------14-12--14h16h14-14-16-|
D|----------------------------------------------|
A|----------------------------------------------|
E|----------------------------------------------|


Verso 1:
G          D        C        D
Eu quero levar uma vida moderninha
G         D        C        D
Deixar minha menininha sair sozinha
G          D          C        D
Não ser machista e não bancar o possessivo
G         D           C          D
Ser mais seguro e não ser tão impulsivo

Refrão:
G         Bm       C  D
Mas eu me mordo de ciúme
G         Bm       C  D
Mas eu me mordo de ciúme

Verso 2:
G          D           C       D
Meu bem me deixa sempre muito à vontade
G      D                C           D
Ela me diz que é muito bom ter liberdade
G         D              C          D
Que não há mal nenhum em ter outra amizade
G         D              C        D
E que brigar por isso é muita crueldade

Refrão:
G         Bm       C  D
Mas eu me mordo de ciúme
G         Bm       C  D
Mas eu me mordo de ciúme


 Solo: G  D  C  D
E|----------------------------------------------------|
B|---------------------------------------------7h9-7~-|
G|---------4h5-4---------------------4h5-4-----7h9-7~-|
D|-4h5-----------5-----------4h5-----------5----------|
A|-----5-----------5-5h7-5-------5-----------5--------|
E|-------7-------------------------7------------------|



E|-----------------3----------3-------5h7-5-7-----------------|
B|-2-------------0---3^-3-------3^-3--5---5-7-----8-10-8h10-8-|
G|-2h4p2-0-------0--------4-2-----------------7/9-------------|
D|---------2-0h2----------------------------------------------|
A|------------------------------------------------------------|
E|------------------------------------------------------------|


Verso 3:
G          D        C        D
Eu quero levar uma vida moderninha
G         D        C        D
Deixar minha menininha sair sozinha
G          D          C        D
Não ser machista e não bancar o possessivo
G         D           C          D
Ser mais seguro e não ser tão impulsivo
G         Bm       C  D
Mas eu me mordo de ciúme
G         Bm       C  D
Mas eu me mordo de ciúme

Outro:
 A C D Dm
Ô Ô Ô Ô
 A C D Dm
Ô Ô Ô Ô

Refrão:
G         Bm       C  D
Mas eu me mordo de ciúme
G         Bm       C  D
Mas eu me mordo de ciúme
G       Bm
Ciúme, ciúme
   C           D
Eu me mordo de ciúme
    G              Bm        C  D
Eu me mordo, eu me mordo de ciúme
    G              Bm        C
Eu me mordo, eu me rasgo, eu me acabo
        D              G             Bm
Eu falo bobagem, eu faço bobagem, eu dou vexame
   C          D          G
Eu faço, eu sigo, eu faço cenas de amor
   Bm     C        D
Ciúme, ciúme, eu me mordo

( G  Bm  C  D ) (2x)

( G )
Tap to rate this tab
# A B C D E F G H I J K L M N O P Q R S T U V W X Y Z