Song name
# A B C D E F G H I J K L M N O P Q R S T U V W X Y Z

Ultrasound - Hide The Scars tab

This is the guitar version of Hide The Scars by us: Ultrasound!
Enjoy! You need to play this with 2 guitars.

Intro (after bass)Guitar 1

E|-1-3-2-3-----3-2-3-|
B|--------3-3-3-----3|
G|-------------------|
D|-------------------|
A|-------------------|
E|-------------------| reapeat throughout the whole verse

Chorus (Hide The Scars)

E|---------10-|
B|-6---6-8-10-|
G|-6---6-8-10-|
D|------------|
A|------------|
E|-5---5-7-9--|

Chorus x2

E|----8---8|
B|---------|
G|-7-7-7-7-|
D|---------|
A|---------|
E|---------|
Tap to rate this tab
 
# A B C D E F G H I J K L M N O P Q R S T U V W X Y Z