Song name
# A B C D E F G H I J K L M N O P Q R S T U V W X Y Z

Ultraspank - Butter tab

Help us improve GuitareTab! Take a short survey!
----------------------------------------------------------------------
			     Butter - Ultraspank
----------------------------------------------------------------------

tuning: dropped D, down a half step

      h - hammer on 
      p - pull off 
      b - bend string up
      r - release bend
      / - slide up
      \ - slide down
      x - left hand mute
      p.m. - palm mute

riff 1:
D#|-------------------------------------------------------------------
A#|-------------------------------------------------------------------
F#|-------------------------------------------------------------------
C#|-0h2h3-0h3p2-0h2\8-0-----------------------------------------------
G#|-0h2h3-0h3p2-0h2\8-0-----------------------------------------------
C#|-0h2h3-0h3p2-0h2\8-0-----------------------------------------------

riff 2:
D#|-------------------------------------------------------------------
A#|-------------------------------------------------------------------
F#|-777777---9\10-----------------------------------------------------
C#|-666666---8\9------------------------------------------------------
G#|-555555---7\8------------------------------------------------------
C#|-------------------------------------------------------------------

riff 3:
D#|-------------------------------------------------------------------
A#|-------------------------------------------------------------------
F#|-777777--99910-----------------------------------------------------
C#|-666666--8889------------------------------------------------------
G#|-555555--7778------------------------------------------------------
C#|-------------------------------------------------------------------

riff 1
riff 2
riff 3
riff 1

riff 4:
D#|-------------------------------------------------------------------
A#|-------------------------------------------------------------------
F#|-------------------------------------------------------------------
C#|-000222444444------------------------------------------------------
G#|-000222224444------------------------------------------------------
C#|-000222--4444------------------------------------------------------
 play 7 times palm muted, then play without palm mute

riff 1
riff 2
riff 3
riff 1
riff 4 (once, with p.m.)
riff 1
riff 4 (once, with p.m.)

its probably ultraspank's easiest song, hope it doesnt give you any trouble.
there is the possibility this tab isnt completely correct, so do with it what you
like, and question everything - j.a.cass
======================================================================
Related for Butter tab