Ulver - Hiertets Vee tab

-----------------------------------------------------------------------------
			     HIERTETS VEE - Ulver
-----------------------------------------------------------------------------
Tabbed by: unholyfilosofem
Email: youbastards_sjr@hotmail.com

Beautiful song from a beautiful album

Tuning: Standard E

Riff A
e|--------------------------------------------------------------------------|
B|--------------------------------------------------------------------------|
G|-----0-----0-----0--------------------------------------------------------|
D|---2-----2-----2----------------------------------------------------------|
A|--------------------------------------------------------------------------|
E|-0-----2-----3------------------------------------------------------------|
 x 2

Riff B
e|----------------------------------------------------------------------------|
B|------1-----0-----0---------------------------------------------------------|
G|----2-----2-----2-----------------------------------------------------------|
D|----------------------------------------------------------------------------|
A|--0-------------------------------------------------------------------------|
E|--------3-----1-------------------------------------------------------------|
x 2

Riff A x 2
Riff B x 2

Riff C Guitar I
e|--------------------------------------------------------------------------|
B|-----3-----3-----3--------------------------------------------------------|
G|---3-----3-----3----------------------------------------------------------|
D|-0-----2-----3------------------------------------------------------------|
A|--------------------------------------------------------------------------|
E|--------------------------------------------------------------------------|
x 6

Riff C Guitar II
e|--------------------------------------------------------------------------|
B|--2-0---0-----------------------------------------------------------------|
G|------3---3-2-3-2-0-------------------------------------------------------|
D|--------------------------------------------------------------------------|
A|--------------------------------------------------------------------------|
E|--------------------------------------------------------------------------|
x 6

Riff B x 2
Riff A x 2
Riff B x 2
Riff A x 2
Riff C x 8

Riff D
e|--------------------------------------------------------------------------|
B|------3-----3-----3-----5-----5-----5-------------------------------------|
G|----3-----3-----3-----5-----5-----5---------------------------------------|
D|--5-----------------7-----------------------------------------------------|
A|--------5-----6-----------7-----8-----------------------------------------|
E|--------------------------------------------------------------------------|
x 4

Riff A x 2
Riff B x 2
Riff A x 2
Riff B x 2
Riff C x 6
Riff B x 2
Riff A x 2
And so on...
Tap to rate this tab
 
# A B C D E F G H I J K L M N O P Q R S T U V W X Y Z