Song name
# A B C D E F G H I J K L M N O P Q R S T U V W X Y Z

Umbrellas - Tests On My Heart tab

Capo 6
RIFF 1
  
E||----------------------|----------------------|----------------------|
B||------------5----0----|-------6----0---------|--8----0---------0----|
G||----------------------|----------------------|----------------------|
D||-------5--------------|----------------------|----------------------|
A||--3-------------------|--3--------------3----|------------3---------|
E||----------------------|----------------------|----------------------|


 
----------------------|----------------------|----------------------|
------------5----0----|-------8----0---------|--5----0---------0----|
----------------------|----------------------|----------------------|
----------------------|----------------------|----------------------|
----------------------|----------------------|----------------------|
--0----0--------------|--0--------------0----|------------0---------|



----------------------|----------------------|-----------------------|
------------5----0----|-------8----0---------|--5s----8----0---------|
----------------------|----------------------|-----------------------|
--3----3--------------|--3--------------3----|------------------0----|
----------------------|----------------------|-----------------------|
----------------------|----------------------|-----------------------|



----------------------|----------------------|----------------------|
------------8----0----|-------6----0---------|--5----0---------0----|
----------------------|----------------------|----------------------|
----------------------|----------------------|----------------------|
--0-------------------|----------------------|----------------------|
-------3--------------|--3--------------3----|------------3---------|


RIFF 2

E||----------------------|----------------------|----------------------|
B||------------5----5----|-----------------5----|--5-------------------|
G||----------------------|----------------------|----------------------|
D||--3----3--------------|--3----3----3---------|-------3--------------|
A||----------------------|----------------------|------------3----3----|
E||----------------------|----------------------|----------------------|


                              
----------------------|----------------------|
--5----5--------------|-------5----5---------|
----------------------|----------------------|
----------------------|----------------------|
------------3---------|----------------------|
-----------------3----|--3--------------3----|


Riff 1
If they did tests on my heart
I think that maybe they would start believing
All the stories that I tell them
Like how sometimes I can barely breathe
For no apparent reason other than I thought some bad thoughts
These nerves are falling apart
And my fingernails stay short
I keep telling myself "You've got to get over yourself"

Riff 2
I don't want you to save me
'Cause what if you did, you'd succeed
And then you would get bored and leave
I'd be back at square one
And that is such a bad place to begin

Riff 1
We sent all of our sins into the sea
And we set it on fire, we're an island now
I don't know if I can take the pressure it creates
To be a self-sustaining industry
So we'll tell ourselves we've got what it takes
And all we need is a little time to dry off

Riff 2
I don't want you to save me
'Cause what if you did, you'd succeed
And you would leave
I'd be back at square one
And that is such a bad place to begin
Tap to rate this tab
# A B C D E F G H I J K L M N O P Q R S T U V W X Y Z