Song name
# A B C D E F G H I J K L M N O P Q R S T U V W X Y Z

Umphreys Mcgee - Bullhead City tab

These notes are just an initial guide, you should alternate
between strums and various arpeggiations of these chords as needed


  E                       Asus2
E---------------------------------------------|
B-------0-----------0-----------0-------------|
G-----1---1-------1---1-------2---2-----------|
D---2-------2---2-------2---2-------2---------|
A-------------2-----------0-------------------|
E-0-------------------------------------------|

  E
E-------------------------------------------------|
B-------0-----------0-----------0-----------0-----|
G-----1---1-------1---1-------1---1-------1---1---|
D---2-------2---2-------2---2-------2---2-------2-|
A-------------2-----------------------2-----------|
E-0-----------------------0-----------------------|

  Asus2			              B
E-------------------------------------------------|
B-------0-----------0-----------0-----------0-----|
G-----2---2-------2---2-------4-----4-----4-----4-|
D---2-------2---2-------2---4-----4-----4-----4---|
A-0-----------------------2-----------------------|
E-------------0-----------------------2-----------|

  B
E-------------------------|
B-------0-----------0-----|
G-----4-----4-----4-----4-|
D---4-----4-----4-----4---|
A-2-----------------------|
E-------------2-----------|

That part is the intro and the verse,  keep playing that
until the chorus, which is this part

A fortune was made but I  lost it
  F#			  Asus2
E-------------------------------------|
B-------2-----------2-----------0-----|
G-----3-----3-----3-----3-----2---2---|
D---4-----4-----4-----4-----2-------2-|
A-------------4-----------0-----------|
E-2-----------------------------------|

  (lost       it          twiiii..    ice)
  twice
  E
E-------------------------------------------------|
B-------0-----------0-----------0-----------0-----|
G-----1---1-------1---1-------1---1-------1---1---|
D---2-------2---2-------2---2-------2---2-------2-|
A-------------2-----------------------2-----------|
E-0-----------------------0-----------------------|

Repeat that a couple times and you got a chorus.
Then add this little riff and go back to the beginning,
or end on this part if you are at the end


  time  were  right I'd   stay  with  you   to  night
  D/F#        D/G         D/B         D/C
E-------------------------------------------------|
B-------3-----------3-----------3-----------3-----|
G-----2---2-------2---2-------2---2-------2---2---|
D---0-------0---0-------0---0-------0---0-------0-|
A-------------------------2-----------3-----------|
E-2-----------3-----------------------------------|

  Dsus2
E-------0-----------0-----------0-----------0-----|
B-----3---3-------3---3-------3---3-------3---3---|
G---2-------2---2-------2---2-------2---2-------2-|
D-0-----------0-----------0-----------0-----------|
A-------------------------------------------------|
E-------------------------------------------------|
Tap to rate this tab
# A B C D E F G H I J K L M N O P Q R S T U V W X Y Z