Song name
# A B C D E F G H I J K L M N O P Q R S T U V W X Y Z

Umphreys Mcgee - Plunger tab

Umphrey's McGee
Anchor Drops
"plunger"

e|-----------------------------------------| repeat this
b|-----------------------------------------|
g|-----------------------------------------|
d|210-----------2-2------------------------|
a|----2-1-0-----2-2----------2---4---2---4-|
E|----------2-1-0-0--0h2-2-2---2---2---2---|

*note* i think the harmonics are at the 3rd fret most
then...

e|-----------------------------------|repeat
b|-----------------------------------|
g|-----------------------------------|
d|-----------------------------------|
a|-----2-4-2-4-2-4-------2-4/6-4-2-4-|
E|0-0-0------------2-2-2-------------|

till

e|------------------|
b|------------------|
g|------------------|
d|------------------|
a|-----3-5------1-3-|
E|3-3-3----1-1-1----|

then back to the beginning

the next part after a few obvious repeats is

e|--------------------------|repeat twice
b|--------------------------|
g|--------------------------|
d|9-9-9-8--8-8-8-8--8-8-8-7-|
a|7-7-7-7--7-7-7-6--6-6-6-6-|
E|--------------------------|

then some wierd tapping fill i cant figure out

followed by some of this tremolo picking

e|-------------------------------------------------|
b|-------------------------------------------------|
g|-------------------------------------------------|
d|5-5-6-6-8-8-6-6-5-5-6-6--3-3-4-4-6-6-4-4-3-3-4-4-|
a|-------------------------------------------------|
E|-------------------------------------------------|

then
   C#/G#                              B A G F
e|--------------------------------------------|repeat
b|--------------------------------------------|
g|6--6-6-6-6--6-6-6-6--6-6-6-6--6--8--6/6/4/2-|
d|6--6-6-6-6--6-6-6-6--6-6-6-6--6--9--9/7/5/3-|
a|4--4-4-4-4--4-4-4-4--4-4-4-4--4--9--9/7/5/3-|
E|4--4-4-4-4--4-4-4-4--4-4-4-4--4--7--7/5/3/1-|

e|-------------------------|
b|-------------------------|
g|-------------------------|
d|-------------------------|
a|-----5-7-5-7-----7-9-7-9-|
E|5-5-5-------7-7-7--------|

then this again

e|--------------------------|repeat twice
b|--------------------------|
g|--------------------------|
d|9-9-9-8--8-8-8-8--8-8-8-7-|
a|7-7-7-7--7-7-7-6--6-6-6-6-|
E|--------------------------|

then something similar to the C#/G# but everything
is 1/2 step up

so its turns into

D/A //// //// //// / C Bb Ab F#

Tap to rate this tab
 
# A B C D E F G H I J K L M N O P Q R S T U V W X Y Z