Song name
# A B C D E F G H I J K L M N O P Q R S T U V W X Y Z

Umphreys Mcgee - Ringo tab

E-------------------------------------------|
B-------------------------------------------|
G-------------------------------------------|
D----------------3h4p3----3-4-5--|  Repeat--| 4x
A---------3-4-5---------5-------------------|
E--3-5-6------------------------------------|

E----------------------------------------------------------|
B--6-6---7~~~ 6-----------------------7--------------------|
G--5-5---6~~~ 5-----------------------6--------------------|
D--4-4---5~~~ 4-------------3--------5----------|  Repeat--| 3x
A--5-5---6~~~ 5--------3-5-----5-5--6----------------------|
E--------------------3/5-----------------------------------|
                                                            Gm    Am
E------------------------------------------------3------5-----------|
B--6--6--7--6----------------------7-----------3------5-----6-------|
G--5--5--6--5----------------------6-----------3------5-----5-------|
D--4--4--5--4-------------3-------5------------5------7-----4-------|
A--5--5--6--5-------3--5----5-5--6------------5------7-----5--------|
E----------------3/5-----------------------------3-------5----------|

       Little reggae part                                        Ebmaj7   Dm    Am
E--3-3-x-3-3----6-6-x-6-6----5-5-x-5---6-6-x--6-------3---------5------5--------------------------|
B--3-3-x-3-3----8-8-x-8-8----6-6-x-6---8-8-x--8-------3---------6------5--------------------------|
G--3-3-x-3-3----7-7-x-7-7----7-7-x-7---7-7-x--7-------3---------7------5--------------------------|
D------------------------------------------------------------4---------7------7------------------5|
A------------------------------------------------------------5---------5------7------------3-4-5--|
E-------------------------------------------------------------0----------------5---3--5--6--------|

E-------------------------------------------------------------------------|
B-------------------------------------------------------------------------|
G-------------------------------------------------------------------------|
D-----------------------------5-------------------------------------------|  repeat riff
A--5--7--5--7--5--7--5--7-------------------------------------------------|
E-------------------------------------------------------------------------|

(funk ending section of) "Ringo"
transcribed by Mike Matray
Transcribed from "Local Band Does OK"

When the funk ending to "Ringo" begins, the bass and guitar are
playing a D-E (as noted where the transcription by Jay P ends).
Next is the "Bunch of Crazy Animals" riff played lightning fast.
I think the easiest way to play that whole tone scale is like this:

Bunch of Crazy Animals whole tone riff (played 3x):
E----------------------------------------------------------------------|
B----------------------------------------------------------------------|
G---------------------------4------------------------------------------|
D--------------------5--7----------------------------------------------|
A------------6--8------------------------------------------------------|
E-----7--9-------------------------------------------------------------|


After the whole tone riff, the band plays the funk ("Slim Knows the
Score...").
It is a three barre chord funk with a riff. Here is the funk
progression:

G minor > riff (below) > F > C  > back to G minor

funk riff:
E----------------------------------------------------------------------|
B----------------------------------------------------------------------|
G------------3-3-------------------------------------------------------|
D-----3--5-------5-----------------------------------------------------|
A----------------------------------------------------------------------|
E----------------------------------------------------------------------|


The soloing that Jake does over the funk is in the G minor key,
Dorian scale.
Tap to rate this tab
# A B C D E F G H I J K L M N O P Q R S T U V W X Y Z