Song name
# A B C D E F G H I J K L M N O P Q R S T U V W X Y Z

Umphreys Mcgee - Mulchees Odyssey tab

the song starts with a few measures of this
B minor arpeggio:

|--------------------------|
|--------------------------|
|--------------------------|
|------4-----4-----4-----4-|
|----5-----5-----5-----5---|
|--7-----7-----7-----7-----|

this altered lick is also thrown in over the same part:

|-----------------------|
|-----------------------|
|-----------------------|
|------4h5p4------4h5p4-|
|----5----------5-------|
|--7----------7---------|

Now the main run (run A):

    Bm          A          D
|-----------------------------------------------------|
|-----------------------------------7-10-8p7----------|
|---------------------------------7----------9p7------|
|-------4-----4-----7-----7-----7----------------9p7--|
|-----5-----5-----7-----7-----9-----------------------|
|---7-----7-----9-----9----10-------------------------|

    Bm           A
|---------------------------------------------------|
|----------------------------10b12--7h8p7h8p7h8p7h8-|
|---------------------------------------------------|
|-------4-----4-----7-----7-------------------------|
|-----5-----5-----7-----7---------------------------|
|---7-----7-----9-----9-----------------------------|

    Bm          A          D
|-----------------------------------------------------|
|-----------------------------------7-10-8p7----------|
|---------------------------------7----------9p7------|
|-------4-----4-----7-----7-----7----------------9p7--|
|-----5-----5-----7-----7-----9-----------------------|
|---7-----7-----9-----9----10-------------------------|

    Bm           A              (rake)
|--------------------------------17-----------------|
|--------------------------------x------------------|
|--------------------------------x------------------|
|-------4-----4-----7-----7------x------------------|
|-----5-----5-----7-----7---------------------------|
|---7-----7-----9-----9-----------------------------|

This next run is the one right before the verse (run B):

   F#                  A           E     B
|----------------2-6-9--------------------------7-6-------------------------------|
|------------2-2---------------2-5------------------7h9p7-6-7---------------------|
|----------3-----------------2---------4----------------------8-8-6h8p6-4-6-4-4---|
|--------4-----------------2---------6--------------------------------------------|
|----1-4-----------------4---------7-------6--------------------------------------|
|--2-------------------5-----------------7----------------------------------------|

|---------------------------------------------------------------------------------|
|---------------------------------------------------------------------------------|
|--3h4p3-1-3----------------------------------------------------------------------|
|------------4-4-4----------------------------------------------------------------|
|---------------------------------------------------------------------------------|
|---------------------------------------------------------------------------------|

   F#                  A           E     B
|----------------2-6-9--------------------------7-6-----6--14-14-14-14-14-14-14---|
|------------2-2---------------2-5------------------------------------------------|
|----------3-----------------2---------4------------6-8---------------------------|
|--------4-----------------2---------6--------------------------------------------|
|----1-4-----------------4---------7-------6--------------------------------------|
|--2-------------------5-----------------7----------------------------------------|

Now for the verse...

   F#m        A5    Ab5      Bm    F  Bb
|--------2---------------------2---1-------------------------------------------|
|--------2---------------------3---1--3----------------------------------------|
|--------2----------2----------4---2--3----------------------------------------|
|--------4----2-2-x-1----4-4-x-4---3--3----------------------------------------|
|--4-4-x-4----0-0-x-0----2-2-x-2---3--1----------------------------------------|
|--2-2-x-2-------------------------1-------------------------------------------|

And the bridge (I clearly see, that you and me...)

|---------------------------------------------------------------------------------|
|---------------------------------------------------------------------------------|
|---------------------------------------------------------------------------------|
|--------------------------------------2------------------------------------------|
|--4-4-4---4-4-4-4--4-4-4--4--2--4--4--0-4---4-4-4-4------------------------------|
|--2-0-2---0-2-0-2--0-2-0--2--0--2--0----2---2-2-2-2------------------------------|

|---------------------------------------------------------------------------------|
|---------------------------------------------------------------------------------|
|---------------------------------------------------------------------------------|
|-------------------------------------4----------9s7s9---9s7s9--------------------|
|--6-6-6--6-6-6-6--6-6-6--6--6--6--6--2-6--------7s5s7---7s5s7--------------------|
|--4-2-4--2-4-2-4--2-4-2--4--2--4--2----4------0-------0-------0------------------|

Now back to the beginning.  The song goes through run A, run B, and the
verse and bridge
two full times through.  After the third verse and bridge, it goes into
run A again, but
instead of run B they start a jam on this:

|--------------------------|-----------------------------|
|--------------------------|-----------------------------|
|--------------------------|------------------------2----|
|--2h4-4-4-4-4-4-4-4-4-4-4-|4-4-4-4-4-4-4-4-4-4p2-----4--|
|--------------------------|----------------------4------|
|--------------------------|-----------------------------|

They jam on this one lick for a while to end the song.

Good luck!
Tap to rate this tab
 
# A B C D E F G H I J K L M N O P Q R S T U V W X Y Z