Song name
# A B C D E F G H I J K L M N O P Q R S T U V W X Y Z

Umphreys Mcgee - Wizard Burial Grounds tab

Here are the first few riffs to one of the best Umphrey's Songs

|---------------------------------|-----------------------------------------|
|---------------------------------|-----------------------------------------|
|---------------------------------|-----------------------------------------|
|---------------------------------|-----------------------------------------|
|---5---3---2---------------------|---5---3---2-----------------------------|
|-0---0---0---3-2-000-0-0-000-0-0-|-0---0---0---3-2-000-0-0-000-0-0-000-0-0-|
  *   *   *       *** * * *** * *   *   *   *       *** * * *** * * *** * *
|---------------------------------|-----------------------------------------|
|---------------------------------|-----------------------------------------|
|---------------------------------|-----------------------------------------|
|---------------------------------|-------3---------------3-----------------|
|---5---3---2---------------------|-3-4-5---5-4-3---3-4-5---5-4-3-----------|
|-0---0---0---3-2-000-0-0-000-0-0-|---------------0-------------------------|
  *   *   *       *** * * *** * *                 *
play the above riff twice then...

|----------------------------------|---------------------------------|
|----------------------------------|---------------------------------|
|----------------------------------|---------------------------------|
|-------5-------5-333-3-5--------5-|-------5-------5-444-4-5-------5-|
|---------111-1-----------333-3----|-444-4---222-2-----------444-4---|
|-111-1----------------------------|---------------------------------|
  *** *   *** *   *** *   *** *      *** *   *** *   *** *   *** *
|----------------------------------|---------------------------------|
|----------------------------------|---------------------------------|
|----------------------------------|---------------------------------|
|-------5-------5-333-3-5--------5-|-4-------2-----------------------|
|---------111-1-----------333-3----|-----------------4-------2-------|
|-111-1----------------------------|---------------------------------|
  *** *   *** *   *** *   *** *
|-----------------------------------|---------------------------------|
|-----------------------------------|---------------------------------|
|-----------------------------------|---------------------------------|
|-----------------3-----------------|-----------------4---------------|
|---------1---------------3---------|-4-------2---------------4-------|
|-1---------------------------------|---------------------------------|


|-----------------------------------|---------------------------------|
|-----------------------------------|---------------------------------|
|-----------------------------------|---------------------------------|
|-----------------3-----------------|-4-------2-------4---------------|
|---------1---------------3---------|---------------------------------|
|-1---------------------------------|---------------------------------|

|-------------------------------------|-------------------------------------|
|-------------------------------------|-------------------------------------|
|-------------------------------------|-------------------------------------|
|-------------------------------------|-------------------------------------|
|-------------------------------------|-------------------------------------|
|-11-14-12-15-17\-0-0-000-0-0-000-0-0-|-11-14-12-15-17\-0-0-000-000-000-000-|
                  * * *** * * *** * *                   * * *** *** *** ***

|-------------------------------------|-------------------------------|
|-------------------------------------|-------------------------------|
|-------------------------------------|-------------------------------|
|-------------------------------------|-------------------------------|
|-------------------------------------|-------------------------------|
|-11-14-12-15-17\-0-0-000-0-0-000-0-0-|-11-14-12-15-17\----000000000--|
                  * * *** * * *** * *                      *********
The last bunch of zeros are triplets. Anytime there's *, palm mute that
note.

That's all I've got. If anyone knows more or knows where to find a tab with more please 
it. Also if someone could tab Mantis that would be cool, I
knew this one cite with a ton of really good Umphrey's including a complete
WBG, but it got taken down or something because I can't find it anymore.

Anyways...I hope this is correct and it helps people.
Tap to rate this tab
# A B C D E F G H I J K L M N O P Q R S T U V W X Y Z