Song name
# A B C D E F G H I J K L M N O P Q R S T U V W X Y Z

Unanimated - Mireille tab

Unanimated - Mireille
From the album - Ancient God Of Evil

Transcribed by Jim Kekonius
Email: korpze@hotmail.com

Standard tuning (E)

Riff 1 - Acoustic Guitar
|----------------------------|
|----------------------------|
|----------------------------|
|---0---7---7----------------|
|-5---5---5-----5---8---7----|
|-------------6---6---5---5--|

Riff 2
		   Different endings...
|-----------------|------|---------|
|-----------------|------|---------|
|-----------------|------|---------|
|------------7----|------|---------|
|-5-7-8-7--7---8~-|-7-3~-|-7-8-10~-|
|-----------------|------|---------|

Riff 3 Chords
Dm,F,Am,G

with this:
|-----------------------|
|-----------------------|
|-----------------------|
|-----------------------|
|-5-7p5-3~--2b~-2-------|
|-----------------5~-3~-|
Tap to rate this tab
# A B C D E F G H I J K L M N O P Q R S T U V W X Y Z