Song name
# A B C D E F G H I J K L M N O P Q R S T U V W X Y Z

Unbroken - Razor tab

-------------------------------------------------------------------------------
			     Razor - Unbroken
-------------------------------------------------------------------------------
Link to Band Website: http://www.unbrokenband.com/theband.htm
Tabbed by:Jimmy
Email:jammasterjimbo1@sbcglobal.net

Tuning:Drop D

Part 1 (PLAY 4 TIMES)

e|---------------------------------------------------------------------------|
B|---------------------------------------------------------------------------|
G|---------------------------------------------------------------------------|
D|---------------8-7---------------------------------------------------------|
A|-----5---6-5---------7---8-8-6---------------------------------------------|
E|-0-0---0-----0-----0---0---------------------------------------------------|  
* *   *     *     *   * * *

PART 2(PLAY 4 TIMES)

e|---------------------------------------------------------------------------|
B|---------------------------------------------------------------------------|
G|------------------15-14----------------------------------------------------|
D|-----12---13-12-----------14---15-15-13------------------------------------|
A|---------------------------------------------------------------------------|
E|-0-0----0-------0-------0----0---------------------------------------------|  
* *    *       *       *    *

PART 3(Let the first note ring while bass keeps going.)

e|---------------------------------------------------------------------------|
B|---------------------------------------------------------------------------|
G|---------------------------------------------------------------------------|
D|---------------------------------------------------------------------------|
A|--0----------------3-3-1---0---------------3-3-1---------------------------|
E|--0----------------3-3-1---0---------------3-3-1---------------------------|

After PART 3, play parts 1, 2, and 3 again.Then play PART 4.

PART 4(PLAY 8 TIMES)

e|---------------------------------------------------------------------------|
B|---------------------------------------------------------------------------|
G|---------------------------------------------------------------------------|
D|-----7---------------------------------------------------------------------|
A|--00-5-6-0-----------------------------------------------------------------|
E|--00---6-0-----------------------------------------------------------------|   **

PART 5, THE SOLO

e|---------------------------------------------------------------------------|
B|---------------------------------------------------------------------------|
G|--7----7-9--10--9--7-9-7-5-------------------------------------------------|
D|----------------------------7----7-8--8--7--5-7-5-3------------------------|
A|-----------------------------------------------------5-----5-7--7/8--8-----|
E|---------------------------------------------------------------------------|

e|---------------------------------------------------------------------------|
B|---------------------------------------------------------------------------|
G|---------------------------------------------------------------------------|
D|------------------------------------------------------------------17-------|
A|-12-10--121012---12-13--13--12--13-15-13-15-17---17-19--20--19--20--20-----|
E|---------------------------------------------------------------------------|

e|---------------------------------------------------------------------------|
B|---------------------------------------------------------------------------|
G|--------------------17------17-----17-19----19----19--17--15-17-15-14-13b--|
D|17-19--20--20-19-20-----20------20-----------------------------------------|
A|---------------------------------------------------------------------------|
E|---------------------------------------------------------------------------|

After solo, play PART 4 again 8 times. then song is over. enjoy =]


| b  bend
| /  slide up
| \  slide down
| h  hammer-on
| p  pull-off
| ~  vibrato
| +  harmonic
| *  Palm Mute
===============================================================================
Tap to rate this tab
 
# A B C D E F G H I J K L M N O P Q R S T U V W X Y Z