Song name
# A B C D E F G H I J K L M N O P Q R S T U V W X Y Z

Unchained - No Goodbye tab

e--------------------------------------------------------------|
B--------------------------------------------------------------|
G------9-----9--------9-----9--------7-----7--------6-----4----|  x3
D--7-7---7-7------6-6---6-6------4-4---4-4------4-4---2-2------|
A--------------------------------------------------------------|
E--------------------------------------------------------------|

e--------------------------------------------------|
B--------------------------------------------------|
G--------------------------------------------------|   x2
D--------------------------------------------------|
A--77777777----77777777----55555555----44442444----|
E--55555555----44444444----22222222----22220222----|
pm ........    ........    ........    ........
e--------------------   x2   -----------------------------------------------|
B---------------------------------------------------------------------------|
G------9-----9---9--------9-----9---9--------7-----7---7--------6-------4---|
D--7-7---7-7---7------6-6---6-6---6------4-4---4-4---4------4-4---4-2-2---2-|
A---------------------------------------------------------------------------|
E---------------------------------------------------------------------------|

e---------|
B---------|
G---------|
D----9----|
A--7---7--|
E---------|

e--------------------------------------------------------------|
B--------------------------------------------------------------|
G--------------------------------------------------------------|  x2
D--77777777----66666666----44444444----44444444----22222222----|
A--77777777----77777777----55555555----44444444----22222222----|
E--55555555----44444444----22222222----22222222----00000000----|

e--------------------------------------------------|
B--------------------------------------------------|
G--------------------------------------------------|   x2
D--------------------------------------------------|
A--77777777----77777777----55555555----44442444----|
E--55555555----44444444----22222222----22220222----|
pm ........    ........    ........    ........
e--------------------------------------------------------------|
B--------------------------------------------------------------|
G--------------------------------------------------------------|  x2
D--77777777----66666666----44444444----44444444----22222222----|
A--77777777----77777777----55555555----44444444----22222222----|
E--55555555----44444444----22222222----22222222----00000000----|
pm .. .. .     .. .. .     .. .. .     .. .. .     .. .. .
e--------------------------------------------------------------|
B--------------------------------------------------------------|
G--------------------------------------------------------------|
D--77777777----66666666----44444444----44444444----22222222----|
A--77777777----77777777----55555555----44444444----22222222----|
E--55555555----44444444----22222222----22222222----00000000----|

e--------------------------------------------------------------|
B--------------------------------------------------------------|
G------9-----9--------9-----9--------7-----7--------6-----4----|
D--7-7---7-7------6-6---6-6------4-4---4-4------4-4---2-2------|
A--------------------------------------------------------------|
E--------------------------------------------------------------|

e-------------------------------------------------------------------|
B-------------------------------------------------------------------|
G------9-----9--------9-----9--------7-----7--------6-----4----2----|
D--7-7---7-7------6-6---6-6------4-4---4-4------4-4---2-2-----------|
A-------------------------------------------------------------------|
E-------------------------------------------------------------------|

e--------------------------------------------------------------|
B--------------------------------------------------------------|
G--------------------------------------------------------------|  x4
D--77777777----66666666----44444444----44444444----22222222----|
A--77777777----77777777----55555555----44444444----22222222----|
E--55555555----44444444----22222222----22222222----00000000----|

e-----------|
B-----------|
G-----------|
D--7hold----|
A--7hold----|
E--5hold----|

End i hope u like my tab this is my own bands music i think i got it all
!..!,
Tap to rate this tab
 
# A B C D E F G H I J K L M N O P Q R S T U V W X Y Z