Song name
# A B C D E F G H I J K L M N O P Q R S T U V W X Y Z

Unchained - I Dont Have To chords

Intro

e-----------------------------------|
B-----------------------------------|
G-----------------------------------|  x4
D-----------------------------------|
A--2222-5~----2222-5~----2222-5~----|
E--0000-3~----0000-3~----0000-3~----|
pm ....       ....       ....

Verse
e--------------------------------------------|
B--------------------------------------------|
G--------------------------------------------|  x2
D--------------------------------------------|
A--55555555--22222222--77777777--99999999----|
E--33333333--00000000--55555555--77777777----|

Chorus
e----------------------------------------------|
B----------------------------------------------|
G----------------------------------------------|  x2
D----------------------------------------------|
A--5555-5~----2222-2~----7777-7~----9999-9~----|
E--3333-3~----0000-0~----5555-5~----7777-7~----|
pm ....       ....       ....       ....

Verse x2,chorus

Bridge
e-----------------------------------------------------|
B-----------------------------------------------------|
G-----------------------------------------------------|
D-----------------------------------------------------|
A--55-55-55-55-22-22-22-22-77-77-77-77-99-99-99-99----|
E--33-33-33-33-00-00-00-00-55-55-55-55-77-77-77-77----|
pm .  .  .  .  .  .  .  .  .  .  .  .  .  .  .  .

chorus

Outro
e-------------------------------      ----------------------|
B-------------------------------      ----------------------|
G-------------------------------  x2  ----------------------|
D-------------------------------      ----------------------|
A---3-6-5-8-----3-6-5-8-7-10----      --7-6-5-4-3-22222222--|
E--2-5-4-7-----2-5-4-7-6-9------      --5-4-3-2-1-00000000--|

This is my song that i have not played yet and all i done was improved it to here and i 
it would be pretty cool !..!,
Tap to rate this tab
# A B C D E F G H I J K L M N O P Q R S T U V W X Y Z