Song name
# A B C D E F G H I J K L M N O P Q R S T U V W X Y Z

Unchained - Remote Controlled Life tab

Intro
e------------------------------------|
B------------------------------------|
G------------------------------------|
D------------------4444444477776666--|
A--5555555544444444------------------|
E------------------------------------|
PM ................................

e------------------------------------|
B------------------------------------|
G------------------------------------|
D------------------4444444477776666--|
A--5555555544444444--------22222222--|
E------------------------------------|
PM ........................

Verse
e--------------------------------------------------------------|
B--------------------------------------------------------------|
G--7~77~77~77~7~-----------------------------------------------|
D--7~77~77~77~7~-7~77~77~77~7~-5~55~55~55~5~-4444444422222222--| x3
A--5~55~55~55~5~-7~77~77~77~7~-5~55~55~55~5~-2222222244444444--|
E----------------5~55~55~55~5~-3~33~33~33~3~-------------------|

Chorus
e-----------------------------------------------------------------------|
B-----------------------------------------------------------------------|
G--7777777777777777-----------------------------------------------------|
D--7777777777777777-7777777777777777-5555555555555555-4444444422222222--| x2
A--5555555555555555-7777777777777777-5555555555555555-2222222244444444--|
E-------------------5555555555555555-3333333333333333-------------------|

Verse
e--------------------------------------------------------------|
B--------------------------------------------------------------|
G--7~77~77~77~7~-----------------------------------------------|
D--7~77~77~77~7~-7~77~77~77~7~-5~55~55~55~5~-4444444422222222--|
A--5~55~55~55~5~-7~77~77~77~7~-5~55~55~55~5~-2222222244444444--|
E----------------5~55~55~55~5~-3~33~33~33~3~-------------------|

Chorus
e-----------------------------------------------------------------------|
B-----------------------------------------------------------------------|
G--7777777777777777-----------------------------------------------------|
D--7777777777777777-7777777777777777-5555555555555555-4444444422222222--| x2
A--5555555555555555-7777777777777777-5555555555555555-2222222244444444--|
E-------------------5555555555555555-3333333333333333-------------------|

Bridge
e---------------------------------------|
B---------------------------------------|
G--7~-----------------------------------|
D--7~-----------------4444444477776666--|
A--5~-5555555544444444------------------|
E---------------------------------------|
PM    ................................

E------------------------------------|
B------------------------------------|
G------------------------------------|
D------------------4444444477776666--|
A--5555555544444444--------22222222--|
E------------------------------------|
PM ........................

Chorus
e-----------------------------------------------------------------------|
B-----------------------------------------------------------------------|
G--7777777777777777-----------------------------------------------------|
D--7777777777777777-7777777777777777-5555555555555555-4444444422222222--| x3
A--5555555555555555-7777777777777777-5555555555555555-2222222244444444--|
E-------------------5555555555555555-3333333333333333-------------------|

e-------------------------------------------------------------------------|
B-------------------------------------------------------------------------|
G--7777777777777777---------------------------------------------------7~~-|
D--7777777777777777-7777777777777777-5555555555555555-4444444422~2~2~-7~~-|
A--5555555555555555-7777777777777777-5555555555555555-2222222244~4~4~-5~~-|
E-------------------5555555555555555-3333333333333333---------------------|

PM = Palm Mute
~  = Ring Out
Tap to rate this tab
# A B C D E F G H I J K L M N O P Q R S T U V W X Y Z