Song name
# A B C D E F G H I J K L M N O P Q R S T U V W X Y Z

Uncle Acid And The Deadbeats - Do What Your Love Tells You tab

Tabbed by Five

==========================================================
Uncle Acid And The Deadbeats - Do What Your Love Tells You
==========================================================

Another great Song from these guys. Enjoy!
Tuning is C# (C#F#BEG#C#).



# Intro-Slide:
C#|----------|
G#|----------|
E |----------|
B |----------|
F#|----------|
C#|--0--12\--|



# Riff 1.1:
|--------------------------|-----------------------------|
|--------------------------|-----------------------------|
|--------------------------|-----------------------------|
|--------------------------|-----------------------------|
|--------6--8~-------8-----|--8b--8--6--8~------------6--|
|--0--0-----------0-----0--|------------------6--6h-8----|
   p  p           p     p

|--------------------------|-------------------------------|
|--------------------------|-------------------------------|
|--------------------------|-------------------------------|
|--------------------------|-------------------------------| 
|--------6--8~-------8-----|--8b--8--/6--/6~------------6--|
|--0--0-----------0-----0--|--------------------6--6h-8----|
   p  p           p     p

# Riff 1.2:
|--------------------------|-----------------------------|
|--------------------------|-----------------------------|
|--------------------------|-----------------------------|
|--------------------------|-----------------------------|
|--------6--8~-------8-----|--8b--8--6--8~------------6--|
|--0--0-----------0-----0--|------------------6--6h-8----|
   p  p           p     p

|--------------------------|-----------------------|
|--------------------------|-----------------------|
|--------------------------|-----------------------|
|--------------------------|-----------------------|
|--------6--8~-------6--4--|-----6-----------------|
|--0--0-----------0--------|--0-----4b----4--3~----|
   p  p           p           p


   
# Riff 2:
|-----------------------------------|-------------------------|
|-----------------------------------|-------------------------|
|-----------------------------------|-------------------------|
|--------15/-17-15-------13/-15-13--|-----8--10---------------|
|--------13/-15-13-------11/-13-11--|-----6---8----6--6h-8-8--|
|--0--0---------------0-------------|--0----------------------|
   p  p               p                p
   
|-----------------------------------|------------------------------|
|-----------------------------------|------------------------------|
|-----------------------------------|------------------------------|
|--------15/-17-15-------13/-15-13--|-----8--10--------------------|
|--------13/-15-13-------11/-13-11--|-----6---8----6h-8-8--6h-8-8--|
|--0--0---------------0-------------|--0---------------------------|
   p  p               p                p
   
|-----------------------------------|-------------------------|
|-----------------------------------|-------------------------|
|-----------------------------------|-------------------------|
|--------15/-17-15-------13/-15-13--|-----8--10---------------|
|--------13/-15-13-------11/-13-11--|-----6---8----6--6h-8-8--|
|--0--0---------------0-------------|--0----------------------|
   p  p               p                p

|-----------------------------------|--------------------------|
|-----------------------------------|--------------------------|
|-----------------------------------|--------------------------|
|--------15/-17-15-------13/-15-13--|--------------------------|
|--------13/-15-13-------11/-13-11--|-----6h-8-6b----6------6--|
|--0--0---------------0-------------|--0---------------6h-8----|
   p  p               p                p

   
   
# Riff 1.1 x 2
# Riff 2 x 1
# Riff 1.1 x 2
# Riff 2 x 1



# Interlude:
|----------------|-------------------|-------------|
|----------------|-------------------|-------------|
|----------------|-------------------|-------------|
|--3-----3--3----|--4-------4/---8~--|-------------|
|--3-----3--3----|--4-------4/---8~--|-------------|
|--1-----1--1----|--2-------2/---6~--|--6br---6br--|


# "Solo-Riff"-Section:
# Solo-Riff 1:
|-------------------------------------------------------------------|
|-------------------------------------------------------------------|
|-------------------------------------------------------------------|
|-------------------------------------------------------------------|
|-------------------------------------------------------------------|
|--4-6--6---4-6--6---4-6--6---4-6--4-1--4---6--6---4-6--6---4-6--6--|

|-------------------|
|-------------------|
|-------------------|
|---------6---------|
|----6h-8---8p-6----|
|--4-------------9--|

# Solo-Riff 2 x 3 (Same as Solo-Riff 1, just leave out the first note [4]):
|-----------------------------------------------------------------|
|-----------------------------------------------------------------|
|-----------------------------------------------------------------|
|-----------------------------------------------------------------|
|-----------------------------------------------------------------|
|--6--6---4-6--6---4-6--6---4-6--4-1--4---6--6---4-6--6---4-6--6--|

|-------------------|
|-------------------|
|-------------------|
|---------6---------|
|----6h-8---8p-6----|
|--4-------------9--|


# Solo-Riff 3:
|---------------------------------------------------------------------|
|---------------------------------------------------------------------|
|---------------------------------------------------------------------|
|---------------------------------------------------------------------|
|---------------------------------------------------------------------|
|--6h-8-8-8---6-8--8---6-8--8---6-8--6-3--6---8--8---6-8--8---6-8--8--|

|----------------------------------|
|----------------------------------|
|----------------------------------|
|--------8-10-8----8---------------|
|--8h-10--------10---10-8-10-8-----|
|------------------------------10--|

# Solo-Riff 4 (Like Solo-Riff 1, but a different start and ending):
|-----------------------------------------------------------------|
|-----------------------------------------------------------------|
|-----------------------------------------------------------------|
|-----------------------------------------------------------------|
|-----------------------------------------------------------------|
|--8--8---6-8--8---6-8--8---6-8--6-3--6---8--8---6-8--8---6-8--8--|

|----------------------------------|
|----------------------------------|
|----------------------------------|
|--10p-8----8----------------------|
|--------10---10-8-10-8----8-------|
|-----------------------11---10-8--|


# Interlude
# Riff 1.2
# Riff 1.1 x 2
# Riff 2 x 1
# Interlude


# Outro
# This is not right, I know...I'm going to do this better later.
# Nontheless, this Song is also without the Outro awesome.
|--------------------------|
|--------------------------|
|--------------------------|
|----------6h--8--6-----6--|
|-----6--------------8-----|
|--6-----------------------|
   Let the 6 ring

|-----------------------------------------------|
|-----------------------------------------------|
|-----------------------------------------------|
|--8-----6----10----10----11----11----15----15--|
|-----8-----------8-----------9----------13-----|
|--6-----------8-----------9----------13--------|


Have fun, Five :]


Legend
======
\ ... Slide down
/ ... Slide up
h ... Hammer-On
~ ... Vibrato
p ... Palm-Mute
b ... Bend
r ... Release
br ... Bend and Release
Tap to rate this tab
# A B C D E F G H I J K L M N O P Q R S T U V W X Y Z