Song name
# A B C D E F G H I J K L M N O P Q R S T U V W X Y Z

Uncle Acid And The Deadbeats - Dead Eyes Of London tab

Solo is missing.
Tuning: One and a half steps down.

Riff 1:
|---------------------------------------------|
|---------------------------------------------|
|---------------------------------------------|
|---------------------------------------------|
|-9-9-9--9-9-9--9-9-9-9--9-9--11-12-11-12-----|
|-7-7-7--7-7-7--7-7-7-7--7-7--9--10-9--10-----|

Riff 2:
|-------------------------------------------------------------------|
|-------------------------------------------------------------------|
|-------------------------------------------------------------------|
|-------------------------------------------------------------------|
|-7-7-7--7-7-7--7-7--6-6-6--6-6-6--6-6--9-9-9--9-9-9--9-9-9-9--9-9--|
|-5-5-5--5-5-5--5-5--4-4-4--4-4-4--4-4--7-7-7--7-7-7--7-7-7-7--7-7--|

Riff 3:
|-------------------------------|
|-------------------------------|
|-------------------------------|
|-9--9-7--6--2-4--4-------------|
|-7--7-5--4--0-2--2-------------|
|-------------------------------|
Tap to rate this tab
 
# A B C D E F G H I J K L M N O P Q R S T U V W X Y Z