Song name
# A B C D E F G H I J K L M N O P Q R S T U V W X Y Z

Uncle Acid And The Deadbeats - 13 Candles tab

The solo is missing, I will upload it someday.
Tuning: one and a half steps down.

Riff 1:
|-------------------------------------------------------|
|-------------------------------------------------------|
|-------------------------------------------------------|
|-------------------------------------------------------|
|-------14p12----12-14~---14p12----12-------------------|
|-12-12-------15----------------15----12~---10-12-12-12-|



|-------------------------------------------------------|
|-------------------------------------------------------|
|-------------------------------------------------------|
|-------------------------------------------------------|
|-------14p12----12-14~---14p12-10-10-------------12----|
|-12-12-------14----------------------12~---10-12----12-|

Riff 2:

|---------------------------------|-----------------------------|
|---------------------------------|-----------------------------|
|---------------------------------|-----------------------------|
|--------10~-12~-9~-10~--5-7-7-7--|--10~-12~-9~-10~--5-7-7-7----|
|---------------------------------|-----------------------------|
|-12-12---------------------------|-----------------------------|

Riff 3:
|-------------------------------------------------------|
|-------------------------------------------------------|
|-5-5-5-5-----------------------------------------------|
|-5-5-5-5-------5-5-5--5-5-5----------------------------|
|-3-3-3-3-------5-5-5--5-5-5----------------------------|
|---------------3-3-3--3-3-3----------------------------|

Riff 4:

|--------------------------------------------|
|--------------------------------------------|
|--------------------------------------------|
|--------14-12----12-------------------------|
|-12-12--------15----15-14-15-14-10----------|
|--------------------------------------------|

Riff 4b:

|--------------------------------------------|
|--------------------------------------------|
|--------------------------------------------|
|--------14-12----12-------------------------|
|-12-12--------15----15-14-10----------------|
|--------------------------------------------|


Riff 5:

|--------------------------------------------|
|--------------------------------------------|
|--------------------------------------------|
|--------------------------------------------|
|--------14-12----12-------------------------|
|-12-12--------15----15-14-15-14-10----------|

Riff 5b:

|--------------------------------------------|
|--------------------------------------------|
|--------------------------------------------|
|--------------------------------------------|
|--------14-12----12-------------------------|
|-12-12--------15----15-14-10----------------|


Solo:


P: pull-off
~: vibrato
Tap to rate this tab
 
# A B C D E F G H I J K L M N O P Q R S T U V W X Y Z