Song name
# A B C D E F G H I J K L M N O P Q R S T U V W X Y Z

Uncle Acid And The Deadbeats - Death Valley Blues tab

Riff 1:
|-------------------------------------------------------|
|-----5--------5-----------5-7-5-----5-6-6---6-5--------|
|-4-6---6--4-6---6-4---4-6-------6---6-7---7---6-2-3----|
|------------------------------------7-8-------7-2-3----|
|------------------------------------------------0-1----|
|-------------------------------------------------------|

Riff 2:
|-------------------------------------------------------|
|-------------------------------------------------------|
|--6--7--6--4-2-----------------------------------------|
|--6--7--6--4-2-----------------------------------------|
|--4--5--4--2-0-----------------------------------------|
|-------------------------------------------------------|

Riff 3:
|--------------------------------------------------------------------------|
|--------------------------------------------------------------------------|
|--6--7--6--4-2---6--7--6--4-2---2---2---2---2---2---2---2--5-5------------|
|--6--7--6--4-2---6--7--6--4-2---2---2---2---2---2---2---2--5-5------------|
|--4--5--4--2-0---4--5--4--2-0-0-0-0-0-0-0-0-0-0-0-0-0-0-0--3-3------------|
|--------------------------------------------------------------------------|
                               * * * * * * * * * * * * * *
Riff 4:
|-------------------------------------------------------|
|-------------------------------------------------------|
|-------------------------------------------------------|
|-------5--5--------------------------------------------|
|-5-7-8------5------------------------------------------|
|------------3------------------------------------------|

Riff 5(while solo):
|-------------------------------------------------------|
|-------------------------------------------------------|
|--7-7-7-7-9-9-9-9-5-5-5-5-5-5-5-5----------------------|
|--7-7-7-7-9-9-9-9-5-5-5-5-5-5-5-5----------------------|
|--5-5-5-5-7-7-7-7-3-3-3-3-3-3-3-3----------------------|
|-------------------------------------------------------|

Riff 6:
|-------------------------------------------------------|
|-------------------------------------------------------|
|--7-7-6-7-6-5------------------------------------------|
|--7-7-6-7-6-5------------------------------------------|
|--5-5-4-5-4-3------5-----------------------------------|
|---------------5-8---8-7-------------------------------|

Palm mute = *
Tap to rate this tab
 
# A B C D E F G H I J K L M N O P Q R S T U V W X Y Z