Song name
# A B C D E F G H I J K L M N O P Q R S T U V W X Y Z

Uncle Acid And The Deadbeats - Poison Apple tab

Riff 1:
|-------------------------------------------------------|
|-------------------------------------------------------|
|-------------------------------------------------------|
|-------------------------------------------------------|
|---7------------7---8--7-------------------------------|
|-5---5--5-5-3-5---5------8-7---------------------------|

Riff 2: 
|-------------------------------------------------------|
|-------------------------------------------------------|
|-------------------------------------------------------|
|-7-7-7-7--6-6-6-6--5-5-5-5--4-4-4-4-4-4-5-5-5-5-5-5-5--|
|-7-7-7-7--6-6-6-6--5-5-5-5--4-4-4-4-4-4-5-5-5-5-5-5-5--|
|-5-5-5-5--4-4-4-4--3-3-3-3--2-2-2-2-2-2-3-3-3-3-3-3-3--|

Riff 3:
|-------------------------------------------------------|
|-------------------------------------------------------|
|-------------------------------------------------------|
|---7------------7---8--7-------------------------------|
|-5---5--5-5-3-5---5------8-7---------------------------|
|-------------------------------------------------------|

Riff 4:
|-------------------------------------------------------|
|-------------------------------------------------------|
|-------------------------------------------------------|
|-10-10-10--10-10-10--10-10-10--10-10-10----------------|
|-10-10-10--10-10-10--10-10-10--10-10-10----------------|
|-8--8--8---8--8--8---8--8--8---8--8--8-----------------|

|-------------------------------------------------------|
|-------------------------------------------------------|
|-------------------------------------------------------|
|-8-8-8--8-8-8--8-8-8--8-8-8----------------------------|
|-8-8-8--8-8-8--8-8-8--8-8-8----------------------------|
|-6-6-6--6-6-6--6-6-6--6-6-6----------------------------|

|-------------------------------------------------------|
|-------------------------------------------------------|
|-------------------------------------------------------|
|-12-12-12--12-12-12--12-12-12--12-12-12----------------|
|-12-12-12--12-12-12--12-12-12--12-12-12----------------|
|-10-10-10--10-10-10--10-10-10--10-10-10----------------| x2
Tap to rate this tab
# A B C D E F G H I J K L M N O P Q R S T U V W X Y Z