Song name
# A B C D E F G H I J K L M N O P Q R S T U V W X Y Z

Uncle Acid And The Deadbeats - Crystal Spiders tab

Uncle Acid And The Deadbeats
Crystal Spiders


Riff 1
|--------------------------------------------------------------|
|--------------------------------------------------------------|
|--------------------------------------------------------------|
|--------------------------------------------------------------|
|----2---2---3---3---3-----------2---2---3---3---3-------------|
|------------------------0---0-----------------------0---0-----|

|--------------------------------------------------------------|
|--------------------------------------------------------------|
|--------------------------------------------------------------|
|--------------------------------------------------------------|
|----2---2---3---3---3-----------2---2---3---3---3-------------|
|------------------------0---0-----------------------0---0-----|

Riff 2

|-------------------------------------------------------|
|-------------------------------------------------------|
|-------------------------------------------------------|
|-------------------------------------------------------|
|----5---7---9---10---12/14---12---10---9---------------|
|-------------------------------------------------------|

|----------------------------------------------|
|----------------------------------------------|
|----------------------------------------------|
|----------------------------------------------|
|----5h7-----------2---2---3---3---3-----------|
|----------0---0-----------------------0---0---|

Riff 3

|----------------------------------------------------------------|
|----------------------------------------------------------------|
|----9--9--7------------9--9--7------------9--9--9--9--7--5--4---|
|----9--9--7------------9--9--7------------9--9--9--9--7--5--4---|
|----7--7--5------------7--7--5------------7--7--7--7--5--3--2---|
|-------------0--0--0------------0--0--0-------------------------|


Riff 4

|-------------------------------------------------------|
|-------------------------------------------------------|
|----5--5--5--5--5--5--5--5--7--7--7--7--7--7--7--7-----|
|----5--5--5--5--5--5--5--5--7--7--7--7--7--7--7--7-----|
|----3--3--3--3--3--3--3--3--5--5--5--5--5--5--5--5-----|
|-------------------------------------------------------|

Riff 5
this riff is played sometimes after the riff 4 when the song endhing, after this riff 
has just a final solo)

|---------------------------------------|
|--------------------------10b--10b-----|
|----9--9--9--9--9--9--9----------------|
|----9--9--9--9--9--9--9----------------|
|----7--7--7--7--7--7--7----------------|
|---------------------------------------|




b = Bend
/ = Slide
h = Hammer-On
Tap to rate this tab
# A B C D E F G H I J K L M N O P Q R S T U V W X Y Z