Uncle Cracker - Follow Me tab

Heyy buddiess these are the chords for YOU.......you will find this the most
perfect INTRO of this song. Wont say much. play it and you will gotta know.!!

Follow Me- Uncle Cracker.
EBGDAe tuning.

[Intro]

E--3\5-3--0-----------------------|
B------------3--5--3--0----3\5--8-|
G------------------------2--------|
D---------------------------------|
A---------------------------------|
e---------------------------------|

E--3\5-3--0-----------------------|
B------------3--5--3--0----3\5-3--|
G------------------------2--------|
D---------------------------------|
A---------------------------------|
e---------------------------------|
Tap to rate this tab
 
# A B C D E F G H I J K L M N O P Q R S T U V W X Y Z