Song name
# A B C D E F G H I J K L M N O P Q R S T U V W X Y Z

Uncle Daddy - Rise Again tab

this is my first tab EVAR dont judge me.

all i did to obtain this was listen to it and play to how it sounded, its probably all 
wrong but its as close as your going to get because ive spent days trying to find a tab 
for this song on the internet and couldnt find sh!t

...your welcome

tis really hard to get this

i wanted this tab to be able to go out with my mates and play the music from the game trailer

-THE LAST OF US- if the last of us brought u here, again your welcome that link is mine



e|---------------------------------------------------------------------------|
B|---------------------------------------------------------------------------|
G|------0-----------0-----------------0---4--3--2---0------------------------|
D|--0h2----2----0h2----2---0h2----0h2---2--------------2h4p2-----------------|
A|---------------------------------------------------------------------------|
E|---------------------------------------------------------------------------|

e|---------------------------------------------------------------------------|
B|---------------------------------------------------------------------------|
G|------0-----------0-----------------0---4--3--2---0------------------------|
D|--0h2----2----0h2----2---0h2----0h2---2--------------2h4p2-----------------|
A|---------------------------------------------------------------------------|
E|---------------------------------------------------------------------------|
Tap to rate this tab
 
# A B C D E F G H I J K L M N O P Q R S T U V W X Y Z