Song name
# A B C D E F G H I J K L M N O P Q R S T U V W X Y Z

Uncle Kracker - Follow Me tab

First Solo:

e|--------8--------------------------------|
B|--8/10-----10--8--6-------6--6--6/8------|
G|---------------------7/5-----------------|
D|-----------------------------------------|
A|-----------------------------------------|
E|-----------------------------------------|

e|--------8--------------------------------|
B|--8/10-----10--8--6-------6--6--6/8------|
G|---------------------7/5-----------------|
D|-----------------------------------------|
A|-----------------------------------------|
E|-----------------------------------------|

e|--------8--------------------------------|
B|--8/10-----10--8--6-------6--6--6/8------|
G|---------------------7/5-----------------|
D|-----------------------------------------|
A|-----------------------------------------|
E|-----------------------------------------|

e|-----------------------------------------|
B|--10--10--10/8--6--6/8--6----------------|
G|-----------------------------------------|
D|-----------------------------------------|
A|-----------------------------------------|
E|-----------------------------------------|

Later in this song there is a second little solo:

e|--------8------------|
B|--8/10-----10--8--6--|
G|---------------------|
D|---------------------|
A|---------------------|
E|---------------------|

e|--------8------------|
B|--8/10-----10--8--6--|
G|---------------------|
D|---------------------|
A|---------------------|
E|---------------------|

e|--------8------------|
B|--8/10-----10--8--6--|
G|---------------------|
D|---------------------|
A|---------------------|
E|---------------------|

e|---------------------------|
B|--10--10--10/8--6--6/8--6--|
G|---------------------------|
D|---------------------------|
A|---------------------------|
E|---------------------------|

Please rate =)
Tap to rate this tab
 
# A B C D E F G H I J K L M N O P Q R S T U V W X Y Z