Song name
# A B C D E F G H I J K L M N O P Q R S T U V W X Y Z

Uncle Kracker - Follow Me tab

Help us improve GuitareTab! Take a short survey!
Follow Me, Uncle Kracker
this is a really good song to play and is extreamly easy. im 14 and this is my first tab
so i hope its good it sounds right to me. if you need help on the timing i think it
but for better reference listen to the song, please rate me.

intro:

e---------------------------------------|
B---------------------------------------|
G--12h14-12-10----10----------12--12h14-|
D--------------12----12-10--------------|
A--------------------------12-----------|
E---------------------------------------|

e----------------------------------------|
B----------------------------------------|
G--12h14-12-10----10----10----10h12--10~-|
D--------------12----12----12------------|
A----------------------------------------|
E----------------------------------------|

solo:

e---------------------------------------|
B------13-------------------------------|
G--12b----14-12-10----------10--12------|
D------------------12-10-12-------------|
A---------------------------------------|
E---------------------------------------|
<------do this part 3 times-------------|

e---------------------------------------|
B---------------------------------------|
G12b-12b-12b-10-------12----10~~~~~~~~~-|
D---------------12-10-------------------|
A---------------------------------------|
E---------------------------------------|

i hope it helps any one along who needs it im pretty sure theres no chords during the 
and chorus.
                     Peace In, Aaron
Related for Follow Me tab