Song name
# A B C D E F G H I J K L M N O P Q R S T U V W X Y Z

Uncle Kracker - Follow Me chords

Highlighted       Show chord diagrams
Uncle Kracker - Follow Me.
Chords by Tommy G.

Intro:

e|--3h5-3-1---1--------|--3-3h5---||--1h3-3---|
B|----------3---3-1----|----------||----------|
G|------------------2--|----------||----------|
D|---------------------|----------||----------|
A|---------------------|-1.Ending-||-2.Ending-|
E|---------------------|----------||----------|

Verse 1:
    F
You don't know how you met me 
    Bb
You don't know why
     F        Bb          C        F
You can't turn around and say goodbye
                                     Bb
All you know is when I'm with you, I make you free
     F               Bb             C          F
And swim through your veins like a fish in the sea
I'm singin

Chorus:       Bb        C       F
Follow me everthing is allright
                            Bb    C
I'll be the one to tuck you in at night
           F
And if you
                    Bb    C
Want to leave I can guarantee
           F           Bb   C   F
You won't find nobody else like me

Verse 2:                Bb
I'm not worried bout the ring you wear
          F                  Bb          C         F
Cause as long as I know one knows than nobody can care
                         Bb
You're feelin guilty and I'm well aware
         F          Bb             C        F
But you dont look ashamed and baby I don't care
I'm singin

Chorus:

e|(------------------------------------)-------------------------------|
B|(-/10-13-10--------------------------)-8h10-8h10---------------------|
G|(-----------12\10-------/10-10-10/12-)-----------12-10---10-10h12-10-|
D|(-----------------12-10--------------)-----------------12------------|
A|(----repeat-this-part-three-times----)-------------------------------|
E|(------------------------------------)-------------------------------|

Verse 3:
Gm
  Won't give you money
         C               F
I can't give you the sky
                                     Gm
Your better off if you don't ask why
                           G         C
I'm not the reason that you go astray
                                          F
We'll be alright if you don't ask me stay

Chorus

Verse 1

Chorus 3x

-End-
Tap to rate this tab
 
# A B C D E F G H I J K L M N O P Q R S T U V W X Y Z