Song name
# A B C D E F G H I J K L M N O P Q R S T U V W X Y Z

Uncle Kracker - Good To Be Me tab

-------------------------------------------------------------------------------
                Good To Be Me Intro - Uncle Kracker
-------------------------------------------------------------------------------
Tabbed by:Chris

Tuning: Standard

e|---------------------------------------------------------------------------|
B|-------------------11------------------11----------------------------------|
G|------------8-10---10b12--pb12br10p8---10b12br10---10h12v------------------|
D|-------8-10----------------------------------------------------------------|
A|--6/10---------------------------------------------------------------------|
E|---------------------------------------------------------------------------|

e|---------------------------------------------------------------------------|
B|--13p11---------------------9---9v-----------------------------------------|
G|---------10b12br10p8--------8---8v-----------------------------------------|
D|----------------------8h10-------------------------------------------------|
A|---------------------------------------------------------------------------|
E|---------------------------------------------------------------------------|

e|---------------------------------------------------------------------------|
B|---------------------------------------------------------------------------|
G|--10b12br10--10-8----------------------------------------------------------|
D|-------------------10-8----------------------------------------------------|
A|--------------------------/8-6----------------------6--8b10br8--6v---------|
E|--------------------------------8\6--4v-------4-6/8------------------------|




************************************

| /   slide up
| \   slide down
| h   hammer-on
| p   pull-off
| ~   vibrato
| +   harmonic
| x   Mute note
| b   Bend
| pb  Pre-bend
| br  Bend release
| pbr Pre-bend release
| brb Bend release bend

************************************
Tap to rate this tab
# A B C D E F G H I J K L M N O P Q R S T U V W X Y Z