Song name
# A B C D E F G H I J K L M N O P Q R S T U V W X Y Z

Uncle Outrage - Magor Danjer tab

MAGOR DANJER - Uncle Outrage

tabbed by: clivers

Main Riff (right after nils says "Go!")
E |----------------------------------------------------------------|
B |----------------------------------------------------------------|
G |----------2-2-------------4-4-------------2-2-----------444-444-|
D |4-4-4-4---2-2---2-2-2-2---4-4---4-4-4-4---2-2---2-2-2-2-444-444-|
A |4-4-4-4---0-0---2-2-2-2---2-2---4-4-4-4---0-0---2-2-2-2-222-222-|
E |2-2-2-2---------0-0-0-0---------2-2-2-2---------0-0-0-0---------|

Verse
E |--------------------------------------------------------|
B |--------------------------------------------------------|
G |--------------------------------------------------------|
D |4-4-4-4/7-7/12-12-12-12\9-9\4-4-4-4/7-7---0-0-0-0---7-7-|
A |--------------------------------------------------------|
E |--------------------------------------------------------|

"Danjer Danjer it will not go away..." (Palm mute this part)
E |----------------------------------------------------------------|
B |----------------------------------------------------------------|
G |----------------------------------------------------------------|
D |4---4---4---4---4---4---4---4---7---7---7---7---7---7---7---7---|
A |4---4---4---4---4---4---4---4---7---7---7---7---7---7---7---7---|
E |2---2---2---2---2---2---2---2---5---5---5---5---5---5---5---5---|

"Block dock dock ticky tock ticky tock" part
E |--------|
B |--------|
G |--------|
D |4~------|
A |4~------|
E |2~------| 2x
then
E |----------------|
B |----------------|
G |----------4-4444|
D |4---4--44-4-4444|
A |4---4--44-2-2222|
E |2---2--22-------| 4x

"mager danjer it will not..."
E |----------------------------------------------------------------|
B |----------------------------------------------------------------|
G |----------2-2-------------4-4-------------2-2-----------444-444-|
D |4-4-4-4---2-2---2-2-2-2---4-4---4-4-4-4---2-2---2-2-2-2-444-444-|
A |4-4-4-4---0-0---2-2-2-2---2-2---4-4-4-4---0-0---2-2-2-2-222-222-|
E |2-2-2-2---------0-0-0-0---------2-2-2-2---------0-0-0-0---------|

close to the end, theres a tremolo picking slide
A |--------|
E |14\-----| 4x

end on
E |--------|
B |--------|
G |--------|
D |4~------|
A |4~------|
E |2~------| 
that's it. fun and fast, UO is teh BORXT!
www.uncleoutrage.com
Tap to rate this tab
# A B C D E F G H I J K L M N O P Q R S T U V W X Y Z