Song name
# A B C D E F G H I J K L M N O P Q R S T U V W X Y Z

Uncommonmenfrommars - Tatoo tab

----------------------------------------------------------------------------
			     TATOO - Uncommonmenfrommars
----------------------------------------------------------------------------

Tabbed by: disuse_PUNK
Email:noideaaboutnothing_rapsux@hotmail.com

Tuning: EADGBe

These are the REAL guitar tabs, some very MINOR parts are missing...but it was tabbed by 
I'll update as soon as I get them...

Intro - 1st Guitar
e|--------------------------------------------------------------------------|
B|--------------------------------------------------------------------------|
G|---9-9---------------------9---8-9----------------------------------------|
D|-------9-7-6-7-9-6-7---------9--------------------------------------------|
A|-7-------------------9-7-9------------------------------------------------|
E|--------------------------------------------------------------------------|

Intro Cont. - 2nd Guitar
e|--------------------------------------------------------------------------|
B|--------------------------------------------------------------------------|
G|4x--------2---------4-----------------------------------------------------|
D|4x---2----2x6--4----4x6---------------------------------------------------|
A|2x---2x6--0----4x6--2-----------------------------------------------------|
E|-----0---------2----------------------------------------------------------|

Verse- 2nd Guitar (same as above, w/ palm muting)
e|--------------------------------------------------------------------------|
B|--------------------------------------------------------------------------|
G|--------------------------------------------------------------------------|
D|--------------------------------------------------------------------------|
A|--------------------------------------------------------------------------|
E|--------------------------------------------------------------------------|

Verse- 1st Guitar Fill
e|--------------------------------------------------------------------------|
B|--------------------------------------------------------------------------|
G|-9----8----6----4---------------------------------------------------------|
D|--x4---x4---x4---x4-------------------------------------------------------|
A|-7----6----4----2---------------------------------------------------------|
E|--------------------------------------------------------------------------|

Chorus- (same as 2nd guitar intro)
e|--------------------------------------------------------------------------|
B|--------------------------------------------------------------------------|
G|--------------------------------------------------------------------------|
D|--------------------------------------------------------------------------|
A|--------------------------------------------------------------------------|
E|--------------------------------------------------------------------------|

Interlude-
e|--------------------------------------------------------------------------|
B|--------------------------------------------------------------------------|
G|-----5--4-----------------------------------------------------------------|
D|2----5--4-----------------------------------------------------------------|
A|2----3--2-----------------------------------------------------------------|
E|0-------------------------------------------------------------------------|

That's it...you can put it together yourself, not too hard...
Intro was the only tough bit to get...

Check out www.2112design.com and download TabTrax NOW!, Awesome program...

cheers
Tap to rate this tab
 
# A B C D E F G H I J K L M N O P Q R S T U V W X Y Z