Song name
# A B C D E F G H I J K L M N O P Q R S T U V W X Y Z

Undeclinable Ambuscade - Magic Hairspray tab

Undeclinable Ambuscade
Magic Hairspray
from the album 'Their Greatest Adventures'

enjoy! 


You're always complaining about the rainy days, and at the 
same time you're sitting on your ass.
e|-----------------------------------------------------------------|
B|-----------------------------------------------------------------|
G|-----------------------------------------------------------------|
D|-4-4-4-4-2-2-2-2-4-4-4-4-2-2-2-2-4-4-4-4-2-2-2-2-4-4-4-4-2-2-2-2-|
A|-4-4-4-4-2-2-2-2-4-4-4-4-2-2-2-2-4-4-4-4-2-2-2-2-4-4-4-4-2-2-2-2-|
E|-2-2-2-2-0-0-0-0-2-2-2-2-0-0-0-0-2-2-2-2-0-0-0-0-2-2-2-2-0-0-0-0-|

While you could have
helped us destroy the ozonlayer. You could have helped us
emptying our sprays.
e|---------------------------------------------------------------------------------|
B|---------------------------------------------------------------------------------|
G|-11-11-11-11-9-9-9-9-11-11-11-11-9-9-9-9-11-11-11-11-9-9-9-9-11-11-11-11-9-9-9-9-|
D|-11-11-11-11-9-9-9-9-11-11-11-11-9-9-9-9-11-11-11-11-9-9-9-9-11-11-11-11-9-9-9-9-|
A|-9--9--9--9--7-7-7-7-9--9--9--9--7-7-7-7-9--9--9--9--7-7-7-7-9--9--9--9--7-7-7-7-|
E|---------------------------------------------------------------------------------|

Long hot summers, that's what we try to achieve. Long hot summers.
e|-----------------------------------------------------------------|
B|-----------------------------------------------------------------|
G|-7-7-7-7-7-7-7-7-----------------9-9-9-9-9-9-9-9-9-9-9-9-9-9-9-9-|
D|-7-7-7-7-7-7-7-7-7-7-7-7-7-7-7-7-9-9-9-9-9-9-9-9-9-9-9-9-9-9-9-9-|
A|-5-5-5-5-5-5-5-5-7-7-7-7-7-7-7-7-7-7-7-7-7-7-7-7-7-7-7-7-7-7-7-7-|
E|-----------------5-5-5-5-5-5-5-5---------------------------------| 2x

The secret is, use your magic hairspray. The secret is, use your magic spray.
e|-----------------------------------------------------------------|
B|-----------------------------------------------------------------|
G|-----------------------------------------------------------------|
D|-----------------------------------------------------------------|
A|-7-7--9-9--11-11--12-12--14-14--14-14-14--14-14-14--14-14-14--14-|
E|-5-5--7-7--9--9---10-10--12-12--12-12-12--12-12-12--12-12-12--12-| 2x

The beaches are crowded with lots of pretty girls. Beachvolley makes all our sunny days complete.
e|-----------------------------------------------------------------|
B|-----------------------------------------------------------------|
G|-----------------------------------------------------------------|
D|-4-4-4-4-2-2-2-2-4-4-4-4-2-2-2-2-4-4-4-4-2-2-2-2-4-4-4-4-2-2-2-2-|
A|-4-4-4-4-2-2-2-2-4-4-4-4-2-2-2-2-4-4-4-4-2-2-2-2-4-4-4-4-2-2-2-2-|
E|-2-2-2-2-0-0-0-0-2-2-2-2-0-0-0-0-2-2-2-2-0-0-0-0-2-2-2-2-0-0-0-0-|

Damage the ozonlayer. Destroy the ozonlayer. So we will have.
e|---------------------------------------------------------------------------------|
B|---------------------------------------------------------------------------------|
G|-11-11-11-11-9-9-9-9-11-11-11-11-9-9-9-9-11-11-11-11-9-9-9-9-11-11-11-11-9-9-9-9-|
D|-11-11-11-11-9-9-9-9-11-11-11-11-9-9-9-9-11-11-11-11-9-9-9-9-11-11-11-11-9-9-9-9-|
A|-9--9--9--9--7-7-7-7-9--9--9--9--7-7-7-7-9--9--9--9--7-7-7-7-9--9--9--9--7-7-7-7-|
E|---------------------------------------------------------------------------------|

Long hot summers, that's what we try to achieve. Long hot summers.
e|-----------------------------------------------------------------|
B|-----------------------------------------------------------------|
G|-7-7-7-7-7-7-7-7-----------------9-9-9-9-9-9-9-9-9-9-9-9-9-9-9-9-|
D|-7-7-7-7-7-7-7-7-7-7-7-7-7-7-7-7-9-9-9-9-9-9-9-9-9-9-9-9-9-9-9-9-|
A|-5-5-5-5-5-5-5-5-7-7-7-7-7-7-7-7-7-7-7-7-7-7-7-7-7-7-7-7-7-7-7-7-|
E|-----------------5-5-5-5-5-5-5-5---------------------------------| 2x

The secret is, use your magic hairspray. The secret is, use your magic spray.
e|-----------------------------------------------------------------|
B|-----------------------------------------------------------------|
G|-----------------------------------------------------------------|
D|-----------------------------------------------------------------|
A|-7-7--9-9--11-11--12-12--14-14--14-14-14--14-14-14--14-14-14--14-|
E|-5-5--7-7--9--9---10-10--12-12--12-12-12--12-12-12--12-12-12--12-| 2x

solo
e|--------------------|
B|--------------------|
G|--------------------|
D|-7--9--6--7--6--4-2-|
A|--------------------|
E|--------------------| 2x

Together we'll have a very bad disease.
e|---------------------------------|
B|---------------------------------|
G|---------------------------------|
D|-4-4-4-4-2-2-2-2-4-4-4-4-2-2-2-2-|
A|-4-4-4-4-2-2-2-2-4-4-4-4-2-2-2-2-|
E|-2-2-2-2-0-0-0-0-2-2-2-2-0-0-0-0-|

Brown spots are growing all over our bodies. FUCK YOU
e|--------------------------------------------------|
B|--------------------------------------------------|
G|-11-11-11-11-9-9-9-9-9-11-11-11-11-9-9-9-9-9------|
D|-11-11-11-11-9-9-9-9-9-11-11-11-11-9-9-9-9-9--4-4-|
A|-9--9--9--9--7-7-7-7-7-9--9--9--9--7-7-7-7-7--4-4-|
E|----------------------------------------------2-2-|
Tap to rate this tab
# A B C D E F G H I J K L M N O P Q R S T U V W X Y Z